Guitar Tabs, Chords and Lyrics


Break the Ice    Stratovarius



Location: Season of Change - http://www.sci.fi/~jnevala/stratovarius/

                        Break the Ice

Tabbed By Landis Bender
landis_bender@yahoo.com


E---|-----------------|-------------------------------------
B---|-----------------|-------------------------------------
G---|-----------------|-------------------------------------
D---|-----------7--8--|-------------------------------------
A---|-----------5--6--|-------------------------------------
E---|-----------------|-------------------------------------


         Riff 1
E---||------------------------------------------------------
B---||------------------------------------------------------
G---||*-----------------------------------------------------
D---||*--9-----------------9-----------9-----------7--------
A---||---7-----------------7-----------7-----------5--------
E---||---------------0--0--------0--0-----------------------



E------|-----------------------------------------------|----
B------|-----------------------------------------------|----
G------|-----------------------------------------------|----
D---8--|--9-----------------9--------------------------|----
A---6--|--7-----------------7-----------3--------3-----|----
E------|--------------0--0--------0--0--1--------1-----|----



E------------------------------------------------|----------
B------------------------------------------------|----------
G------------------------------------------------|----------
D---9-----------------9-----------9--------7--8--|----------
A---7-----------------7-----------7--------5--6--|----------
E---------------0--0--------0--0-----------------|----------


                                                 4x
E------------------------------------------------||---------
B------------------------------------------------||---------
G-----------------------------------------------*||---------
D---9--------12-----------------10--------7--8--*||---------
A---7--------10-----------------8---------5--6---||---------
E------------------------------------------------||---------



E-----------------------------------------------------------
B-----------------------------------------------------------
G-----------------------------------------------------------
D-----------------------------------------------------------
A-----------------------------------------------------------
E-----------------------------------------------------------


         Verse Riff
E---||---------------------------------|--------------------
B---||---------------------------------|--------------------
G---||*--------------------------------|--------------------
D---||*-----9--9-----------------------|--------------------
A---||------7--7-----------------------|--------------------
E---||---------------0--0--0--0--0--0--|--------------------



E------------------------------------|----------------------
B------------------------------------|----------------------
G------------------------------------|----------------------
D------------------------------------|----------------------
A---------------------3--------2-----|----------------------
E---0--0--0--1-----------------------|----------------------



E------------------------------|----------------------------
B------------------------------|----------------------------
G------------------------------|----------------------------
D------------------------------|----------------------------
A------2-----------------------|----------------------------
E------0--0--0--0--0--0--0--0--|----------------------------



E--------------------------------------------|--------------
B--------------------------------------------|--------------
G--------------------------------------------|--------------
D------9--------9--------10--------------10--|--------------
A------7--------7--------8---------------8---|--------------
E---0--------0--------0----------------------|--------------



E------------------------------|----------------------------
B------------------------------|----------------------------
G------------------------------|----------------------------
D------9-----------------------|----------------------------
A------7-----------------------|----------------------------
E---------0--0--0--0--0--0--0--|----------------------------



E------------------------------|-----------------------|----
B------------------------------|-----------------------|----
G------------------------------|-----------------------|----
D------------------------------|-----------------------|----
A------------------3-----2-----|--2--------------------|----
E---0--0--0--1-----------------|--0--0--0--0--0--0--0--|----



E---------------------------||------------------------------
B---------------------------||------------------------------
G--------------------------*||------------------------------
D----/5-----------------7--*||------------------------------
A-----------8-----7-----5---||------------------------------
E---------------------------||------------------------------


            Pre Chorus Riff
E---||------------------------------------------------------
B---||------------------------------------------------------
G---||*-----------------------------------------------------
D---||*-----2-----------2-----------2-----------2-----------
A---||------0-----0--0--0-----0--0--0-----0--0--0-----0---0-
E---||------------------------------------------------------




E-------------------------------------------------||--------
B-------------------------------------------------||--------
G------------------------------------------------*||--------
D---2-----------2-----------2-----------2--2--2--*||--------
A---0-----0--0--0-----0--0--0-----0--0--0--0--0---||--------
E-------------------------------------------------||--------



E---------------------------------------------------|-------
B---------------------------------------------------|-------
G---------------4-----------4-----------4-----------|-------
D---4-----------4-----------4-----------4-----------|-------
A---2-----2--2--2-----2--2--2-----2--2--2-----2--2--|-------
E---------------------------------------------------|-------


                                     "It's
E------------------------------------------|----------------
B------------------------------------------|----------------
G---4-----------4-----------4-----------4--|----------------
D---4-----------4-----------4-----------4--|----------------
A---2-----2--2--2-----2--2--2-----2--2--2--|----------------
E------------------------------------------|----------------


    hellllll"
E---------------------------------|-------------------------
B---------------------------------|-------------------------
G---------------------------------|-------------------------
D------7-----7--7--7--7--7--7--7--|-------------------------
A------5-----5--5--5--5--5--5--5--|-------------------------
E---------------------------------|-------------------------


                         "It's"
E------------------------------------------|----------------
B------------------------------------------|----------------
G---------7--------------------------------|----------------
D---------7--7--7--7--7-----8--------------|----------------
A---5--------5--5--5--5-----6--------------|----------------
E------------------------------------------|----------------


    Repeat Riff 1 for Chorus

    Repeat Verse Riff / Pre Chorus/ Chorus

       Break the Ice, Break the Ice
E------|--------------------------|-------------------------
B------|--------------------------|-------------------------
G------|--------------------------|-------------------------
D------|--------------------------|-------------------------
A------|--3--------3-----2--------|-------------------------
E------|--1--------1-----0--------|-------------------------



E------------------------|----------------------------------
B------------------------|----------------------------------
G------------------------|----------------------------------
D------------------------|----------------------------------
A---3--------3--------2--|----------------------------------
E---1--------1--------0--|----------------------------------


             Keyboard Interlude


E-----------------------------------------------------------
B-----------------------------------------------------------
G-----------------------------------------------------------
D-----------------------------------------------------------
A-----------------------------------------------------------
E------------------------0--0--0--0--0--0--0--0-------------


         Rhythm for Solo
E---||---------------------------|--------------------------
B---||---------------------------|--------------------------
G---||*--------------------------|--------------------------
D---||*--9-----------------------|--------------------------
A---||---7-----------------------|--------------------------
E---||------0--0--0--0--0--0--0--|--------------------------



E---------------------------------|-------------------------
B---------------------------------|-------------------------
G---------------------------------|-------------------------
D---------------10--/--12--\--10--|-------------------------
A---------------8---/--10--\--8---|-------------------------
E---0--0--0--0--------------------|-------------------------



E------------------------------|----------------------------
B------------------------------|----------------------------
G------------------------------|----------------------------
D---9--------------------------|----------------------------
A---7--------------------------|----------------------------
E---------0--0--0--0--0--0--0--|----------------------------


                                3x
E-------------------------------||--------------------------
B-------------------------------||--------------------------
G------------------------------*||--------------------------
D------------------7--------7--*||--------------------------
A------------------5--------5---||--------------------------
E---0--0--0--0------------------||--------------------------



E---------------------------------|-------------------------
B---------------------------------|-------------------------
G---------------------------------|-------------------------
D------9--------------------------|-------------------------
A------7--------------------------|-------------------------
E------------0--0--0--0--0--0--0--|-------------------------



E---------------------------------|-------------------------
B---------------------------------|-------------------------
G---------------------------------|-------------------------
D---------------10--/--12--\--10--|-------------------------
A---------------8---/--10--\--8---|-------------------------
E---0--0--0--0--------------------|-------------------------



E---------------------------|-------------------------------
B---------------------------|-------------------------------
G---------------------------|-------------------------------
D---9--------------------5--|-------------------------------
A---7-----------------------|-------------------------------
E------0--0--0--0--0--0-----|-------------------------------



E---------------------------------|-------------------------
B---------------------------------|-------------------------
G---------------------------------|-------------------------
D---------------------------------|-------------------------
A------8--------7--------5--------|-------------------------
E---------------------------------|-------------------------


    Repeat Pre Chorus Riff, then goto Chorus


    Break the Ice, Break the Ice, Break the Ice
E---------------------------|--------------------------|----
B---------------------------|--------------------------|----
G---------------------------|--------------------------|----
D------------------------2--|--------------------------|----
A---3--------------3-----2--|--3-----------3--------2--|----
E---1--------------1-----0--|--1-----------1--------0--|----


                         Break the Ice
E---------------------|--------------------------|----------
B---------------------|--------------------------|----------
G---------------------|--------------------------|----------
D---------------------|--------------------------|----------
A---3-----------3--2--|--3-----------3--------2--|----------
E---1-----------1--0--|--1-----------1--------0--|----------


             END
E-----------------------------------------------------------
B-----------------------------------------------------------
G-----------------------------------------------------------
D-----------------------------------------------------------
A-----------------------------------------------------------


Important: The song above is NOT stored on the Chordie server. The original song is hosted at www.xguitar.com. Chordie works as a search engine and provides on-the-fly formatting. Chordie does not index songs against artists'/composers' will. To remove this song please click here.

This song is displayed as text-only. Transposing and tuning is only available for chordpro-songs.

Login - add to songbook

Rating click stars to rate

Layout
Accuracy

SHARE PAGE  




You need to log in to post comments