Guitar Tabs, Chords and Lyrics


Black Diamond    Stratovarius



stratovarius - black diamond

  By Niuton Filho (Brazil)
  Tune Down 1/2 step
  Keyboard Intro arranged for guitar:
e:---------------------------------------------------------------------------|
B:----10--8--10--6--10-----10-----10--8--10--6--10-----10-------11--10--11--8|
G:----------------------9------7--------------------9------7-----------------|
D:---------------------------------------------------------------------------|
A:-T------------------------------------------------T------T-----------------|
E:-10-----------------------------------------------8------6-----------------|





e:---------------------------------------------------------------------------|
B:--11------11-----11--10--11--8--11------11----------8--6--8--5--8-----8----|
G:------10------9---------------------10------9----------------------7-----5-|
D:---------------------------------------------------------------------------|
A:-------------------------------------------------T-------------------------|
E:-------------------------------------------------8-------------------------|





e:--------------------6-------------|
B:-8--6--8--5--8--10-----10--Repeat-|
G:----------------------------------|
D:----------------------------------|
A:-----------------------------T----|
E:-----------------------------10---|




   Guitar Intro(guitar enters in 2nd time)
e:---------------------------------------------------------------------------|
B:---------------------------------------------------------------------------|
G:---------------------------------------------------------------------------|
D:--7--------------3--3--------5-------7-------------------------------------|
A:--5--------1--1--1--1--------3-------5-------55555555555--111111111--3--5--|
E:---------------------------------------------------------------------------|
            (____)                            (______________________________




e:-----------------------------------|
B:-------------------------------2x--|
G:-----------------------------------|
D:-----------------------------------|
A:1--3333333333333--555555555555555--|
E:-----------------------------------|
  __________________________________)




   While sing
e:---------------------------------------------------------------------|
B:-----------------------------------------------------------------2x--|
G:---------------------------------------------------------------------|
D:--7-----3-------2--2--2----7----3-------2--2--2----5----3----5-------|
A:--5-----1--1-1--1--1--1----5----1--1-1--1--1--1----3----1----3----7--|
E:------------------------------------------------------------------5--|
            (___)                   (__)



   Chorus
e:-------------------------------------------------------------|
B:----------------------------------------------------------2x-|
G:-------------------------------------------------------------|
D:-------------------------------------------------------------|
A:--5555555555555-111111111111-3-5--1--3333333333-55555555555--|
E:-------------------------------------------------------------|
  (___________________________________________________________)



    Guitar Riff
e:---------------------------------------------------------------------------|
B:------15--17--18--17h18p17--15--18--17~--14--------------------15--17--18--|
G:--14-----------------------------------------14------------14--------------|
D:-------------------------------------------------17--15--------------------|
A:---------------------------------------------------------------------------|
E:---------------------------------------------------------------------------|





e:-----------------------18--17--15------------------------------------------|
B:17h18p17--15--18--17~--------------18--17h18p17p15----------------------17h|
G:----------------------------------------------------18--15--14-------------|
D:----------------------------------------------------------------17--15-----|
A:---------------------------------------------------------------------------|
E:---------------------------------------------------------------------------|





e:---------------------------------------15~--17--18--21--18--17-------------|
B:18p17p15------------------15~--17--18---------------------------20--18--17-|
G:----------18--15--14-------------------------------------------------------|
D:----------------------17---------------------------------------------------|
A:---------------------------------------------------------------------------|
E:---------------------------------------------------------------------------|





                              Riff Before Solo                  Solo
e:---------------------------------------------------------------------------|
B:-------------------------|----------------------------------|--5--0-0-0--7-|
G:-19--18--15--------------|----------------------------------|--------------|
D:-------------19--17--15--|--7-----------7-------------------|--------------|
A:-------------------------|--5--7--7--7--5--7--7--7----8-10--|--------------|
E:-------------------------------5--5--5-----5--5--5----6--8-----------------|
                                   (____)      (____)




e:---------------------------------------------------------------------------|
B:-0-0-0--8--0-0-0--5--0-0-0--7--0-0-0--8--0-0-0--10--0-0--12--0-0-0--10--0-0|
G:---------------------------------------------------------------------------|
D:---------------------------------------------------------------------------|
A:---------------------------------------------------------------------------|
E:---------------------------------------------------------------------------|





e:---------------------------------------------------------------------------|
B:-0--8--0-0-0--7--0-0-0--8--0-0-0--5~---------------------------------------|
G:--------------------------------------9~--9/12--12~--12/16--16~--16/21--21~|
D:---------------------------------------------------------------------------|
A:---------------------------------------------------------------------------|
E:---------------------------------------------------------------------------|





e:---------------------------------------------------------------------------|
B:--19h20p19--17----------------------------------------------17--19--20--19-|
G:----------------20--17--16----------------------16--17--20-----------------|
D:----------------------------19--17--16--17--19-----------------------------|
A:---------------------------------------------------------------------------|
E:---------------------------------------------------------------------------|




                                               Solo 2
e:---------------------------------------------------------------------------|
B:-17-----------------------|-Keyboard-Solo-|----------------------18--18/20-|
G:-----20--16--16------16~--|---------------|------------------15------------|
D:-----------------19-------|---------------|--------------17----------------|
A:--------------------------|---------------|----------17--------------------|
E:---------------------------------------------15--18------------------------|






e:---------------------------------------------------------------------------|
B:-20~--20--18--16----------------------16--18--20--18--16-------------------|
G:------------------19--17--15--17--19----------------------19--17--16-------|
D:----------------------------------------------------------------------18--1|
A:---------------------------------------------------------------------------|
E:---------------------------------------------------------------------------|





e:---------------------------------------------------------------------------|
B:---------------------------------------------------------------------------|
G:-------19--17--16----------------------------------------------15--17--19~-|
D:7--15--------------18--17--15----------------------15--17--18--------------|
A:-------------------------------18--17--15--17--18--------------------------|
E:---------------------------------------------------------------------------|




                     Gtr
e:--------------------21--21~--21--19--17--------------21--19--17------------|
B:-|-Keyboard-Solo-|-----------------------21--19--17--------------21--19--17|
G:-|---------------|---------------------------------------------------------|
D:-|---------------|---------------------------------------------------------|
A:-|---------------|---------------------------------------------------------|
E:---------------------------------------------------------------------------|





e:----------------------------------------------------------18~--------------|
B:----------------------------------------------17--19--21------|-Keyboard-So|
G:--20--18--16----------------------16--18--20------------------|------------|
D:--------------19--18--16--18--19------------------------------|------------|
A:--------------------------------------------------------------|------------|
E:---------------------------------------------------------------------------|




       Gtr
e:--------14~------13--14--16--14--13------16--14--14~--13-----------13--14--|
B:lo-|---------16----------------------16-------------------16~--16----------|
G:---|-----------------------------------------------------------------------|
D:---|-----------------------------------------------------------------------|
A:---|-----------------------------------------------------------------------|
E:---------------------------------------------------------------------------|






e:16--16--14~----16--14--13------13--------------16--14--13------------------|
B:---------------------------16------16--14--12--------------16--14--12------|
G:-----------------------------------------------------------------------15--|
D:---------------------------------------------------------------------------|
A:---------------------------------------------------------------------------|
E:---------------------------------------------------------------------------|





e:--------------------------------------|
B:---------|-Repeat-Chorus-Until-the-End|
G:14--12~--|----------------------------|
D:---------|----------------------------|
A:---------|----------------------------|


Important: The song above is NOT stored on the Chordie server. The original song is hosted at www.xguitar.com. Chordie works as a search engine and provides on-the-fly formatting. Chordie does not index songs against artists'/composers' will. To remove this song please click here.

This song is displayed as text-only. Transposing and tuning is only available for chordpro-songs.

Login - add to songbook

Rating click stars to rate

Layout
Accuracy

SHARE PAGE  




You need to log in to post comments