Guitar Tabs, Chords and Lyrics


Forever Free    Stratovarius










Author/Artist: Stratovarius
Title: Forever Free
Album: Vision
Transcribed by: Robert Karlsson
Email: bobbe@welho.com

Tuning: Drop 1/2 step down to Eb,  Bb,  Gb,  Db,  Ab,  Eb

---------|---------|-----------|----------|---------|----------|-----------|--
---------|---------|-----------|----------|---------|----------|-----------|--
---------|---------|-----------|----------|---------|----------|-----------|--
---------|---------|-----------|-7-----10-|-9-------|----------|---10---10-|--
-7-----7-|-9-----9-|-10-----10-|----------|-------7-|-9-----10-|---10---9--|--
---0-0---|---0-0---|----0-0----|---0-0----|---0-0---|---0-0----|---8----8--|--


-|----------|---------|---------|-----------|-----------|---------|---------|-
-|----------|---------|---------|-----------|-----------|---------|---------|-
-|----------|---------|---------|-----------|-----------|---------|---------|-
-|---10-----|---------|---------|-----------|-7---------|---------|---------|-
-|---10-----|-7-----7-|-9-----9-|-10-----10-|---10-9-10-|-7-----7-|-9-----9-|-


Important: The song above is NOT stored on the Chordie server. The original song is hosted at www.xguitar.com. Chordie works as a search engine and provides on-the-fly formatting. Chordie does not index songs against artists'/composers' will. To remove this song please click here.

This song is displayed as text-only. Transposing and tuning is only available for chordpro-songs.

Login - add to songbook

Rating click stars to rate

Layout
Accuracy

SHARE PAGE  




You need to log in to post comments