""; ?> Paradise by Stratovarius - guitar chords, guitar tabs and lyrics - chordie

Paradise

Stratovarius

 B5A5B5D5A5
Late at night I find myself again wondering and watching TV

 B5A5
I can't believe what's on the screen

 G5F#5B5G5
something that I wouldn't like to see

 B5
Verse

1. Many rare species will perish soon
2. It seems to to me that there's no sense at all

 A5B5G5D5A5
and we'll be short on the food
nobody cares it's always the same

 B5B5A5G5F#5B5
Why do we have to so selfish we've got to change our attitude
mother nature crying out in pain I know we're the ones to blame

Pre-chorus

 D5A5E5B5
I know that I am not the only one that's worried

 D5A5F#5
why don't we all wake up and realize

Chorus

 B5G5
Like the birds in the sky we're flying so high

 D5A5F#/A#
Without making anykind of sacrifice

 B5G5
We've got so little time to undo this crime

 F#5
or we'll lose this paradise

Solo

e:-/7----------7-9-10--9--7-----------------------------|
B:-------10-----------------10--8--7--------------------|
G:-----------------------------------9--7--6------------|
D:-------------------------------------------9--7--5----|
A:----------------------------------------------------9-|
E:------------------------------------------------------|
e:-------------------------------------------------------------|
B:-------------------------5bfr----5---3---2---3---2-----------|
G:----------------------4--------2---2---2---2---2---2-4---2---|
D:-------------2--4--5-----------------------------------4---4-|
A:----------2--------------------------------------------------|
E:-0--2--3-----------------------------------------------------|
e:--------------7/9\\7-------7/9\\7------7/9\\7-------|
B:-------------------------------------------------|
G:-4-----4/6\\4--------4/6\\4-------4/6\\4------4/6\\4-|
D:----4--------------------------------------------|
A:-------------------------------------------------|
E:-------------------------------------------------|
e:----12----14----15----15bfr--15-14-12----14-12----------------12-14-15-14-|
B:-12----12----12----12-----------------15-------15-14-12-14-15-------------|
G:--------------------------------------------------------------------------|
D:--------------------------------------------------------------------------|
A:--------------------------------------------------------------------------|
E:--------------------------------------------------------------------------|
e:-12-14-12----------------12-14-15-14-12-14-12----------14~-|
B:----------15-14-12-14-15----------------------15-14-12-----|
G:-----------------------------------------------------------|
D:-----------------------------------------------------------|
A:-----------------------------------------------------------|
E:-----------------------------------------------------------|
e:-------14-17-----17--15--14----------------------------|
B:----15-----------------------17-----15-14--14-15-14-12-|
G:-14----------------------------------------------------|
D:-------------------------------------------------------|
A:-------------------------------------------------------|
E:-------------------------------------------------------|


repeat chorus two times

outro

 A5F5C5G5E/G#
e:---------------------------------------------------------------|
B:-------------------------------------------------------5/6-5---|
G:----------------------------------5---5-7/9-7-5--4-----------7-|
D:--7---7-9/10-9-7--7---7-9/10-9-7----5--------------7-6---------|
A:----7---------------8------------------------------------------|
E:---------------------------------------------------------------|
e:-------------------------------------------------------4---4~--|
B:----------------------------------5---5-6/8-6-5----------------|
G:--5---5-7/9--7-5--5---5-7/9--7-5-----------------7-5-4---------|
D:----7---------------7---------------5--------------------------|
A:---------------------------------------------------------------|
E:---------------------------------------------------------------|


fade out


A5 B5 C5 D5 E/G# E5 F#/A# F#5 F5 G5
variations - click chord images
Transpose chords:
Tuning:
Cool service:
View: Size:
A  A  A
Rating:
Layout:
  • Currently 3/5 Stars.
  • 1
  • 2
  • 3
  • 4
  • 5
 
Accuracy:
  • Currently 2.5/5 Stars.
  • 1
  • 2
  • 3
  • 4
  • 5
 
click stars to rate
Chordie recommends:
Learn to play songs at Jamplay.com with video guitar lessons
Songbook:
Login to add this song to your songbook
Support the artist
Preview/buy this song
MSN Music
Why this non-profit ad?

 
login to add comments/video/corrections