"yes"; ?> Lets Go Get Stoned by Sublime - guitar chords, guitar tabs and lyrics - chordie

Lets Go Get Stoned

Sublime

 E7A7add4E7
|---------------0--------------------------------5-------------------------------------|
|---------------------------------------------------8------------------0---------------|
|--------7---------7-------7--------6---6---------------7------6--------------------7--|
|-----6-----6-------------------------------7----------------------x-------------------|
|--7-------------------7---------0--------------------------0---------------7---7------|
|-----------------------------0--------------------------------------------------------|

 A7Bmaj9B7
|------0------------------------5------------------------------------------------------|
|-----------------------------------8-----------------------------------0--------------|
|---------------7---------6----------------------------8-------------------9-----------|
|--6------6--------------------------------------------------8-------8-----------------|
|------------7--------7------7---------7------------9-----9-----9-------------------9--|
|------------------5----------------------5---7--7----------------------------7--7-----|

 Bmaj9B7Bmaj9B7E9#11
|---------------------------------------------------------------0|
|--------------0---------------------------0--------------------0|
|-----------------9---------------------------9-----------------3|
|--7--------8------------------7--------8-----------------7-----4|
|-----7--7------------------9-----9--9-----------------9---------|
|--------------------7---7-----------------------7--7--------0---|

Verse:
the first part of the verse doesn't have any guitar. it starts up after the lyric goes like this
". . .someone else's dick. . ."
 GF
|---7--7--5--5--|
|---8--8--6--6--|
|---7--7--5--5--|  over and over and over. . .
|---9--9--7--7--|
|---------------|
|---------------|

Interlude
 GDmGFGFE
|--3\----------7\5--5--5--7--7--5--5--4--|
|--3\-------6--8\6--6--6--8--8--6--6--5--|
|--4\-------7--7\5--5--5--7--7--5--5--4--|
|----------------------------------------|
|----------------------------------------|
|----------------------------------------|

Guitar Solo
 1/41/4
|--------------/--------------------3-----------------/--------------------------------------|
|-------------/----------------3h5-----5p3-----3-----/---------------------------------------|
|------------/------------/4----------------4-----2b/-(2)p0--2--0--2--------0----------------|
|--0h2----5b/--2--0--0h2----------------------------------------------0--2-----2p0--2--------|
|--------------------------------------------------------------------------------------------|
|-----------------------------------------------------------------------------------------0--|

full___ full full_____
/ \ / / \ full
|--12b-/----12-\------------------------------------------/-----------7 b-/-7---7--\-------10b|
|--15b/-----15--(15)-------------------------------------/------------10b/--10--10-(10)-------|
|----------------------------------------------------10b/---h7--7/9---------------------9-----|
|---------------------------5------------0----------------------------------------------------|
|-----------------------/7-----/7---0h2-----0--0--0-------------------------------------------|
|---------------------------------------------------------------------------------------------|

full full full
|------------------------------------------------------------------------/--------/--------/---|
|-----------------------------------------------------------------------/--------/--------/----|
|--9-----------------------9---(9)\-------------------------------0--2b/--h0--2b/--h0--2b/--h0-|
|------10--12--10--13--12-------------7/8/9--7--5-----------0--2-------------------------------|
|--------------------------------------------------7---0h2-------------------------------------|
|----------------------------------------------------------------------------------------------|

full
|----------------------------------------------------------------------/--|
|-------------------------------------------------------------------8b/---|
|-------0-------0-------0-------0-------0--------------7h9---(9)\---------|
|--0h2-----0h2-----0h2-----0h2-----0h2-----0h2---/7h9---------------------|
|-------------------------------------------------------------------------|
|-------------------------------------------------------------------------|

1/4 1/4 1/4 full full full full full full
|--------/------/------/---10--------/---------/-----12----/----12----/----12----/----12----/--|
|-----8b/----8b/----8b/----------15b/------15b/--------15b/-------15b/-------15b/-------15b/---|
|--9------9------9------9----------------------------------------------------------------------|
|----------------------------------------------------------------------------------------------|
|----------------------------------------------------------------------------------------------|
|----------------------------------------------------------------------------------------------|

full full full full full
|--12----/---15----/--12--12-----/---12--15b/---17p15--12--15b/---12------12------12\--|
|----15b/------15b/----------15b/-------------------------------------15------15-------|
|--------------------------------------------------------------------------------------|
|--------------------------------------------------------------------------------------|
|--------------------------------------------------------------------------------------|
|--------------------------------------------------------------------------------------|

 1/41/2
|------/--------------------------------------------------------------------------------/-------|
|-----/--------------------------------------------------------------------------------/--------|
|--2b/---h0--2-----0h2----------------------0---------0------------0------------0---2b/------0--|
|---------------2-------2--5/6/15\---0h1h2-----0h1h2-----2--0h1h2-----2--0h1h2------------2-----|
|-----------------------------------------------------------------------------------------------|
|-----------------------------------------------------------------------------------------------|

 1/21/2
|----------------------------------------------------------/--------------/--------------------|
|---------------------------------------------------------/--------------/---------------------|
|--------------------------------------------------------/--------------/----------------------|
|--2-----2-----------------------5--7--8--------5--6--7b/--h5-----8--7b/--h5--5--7----5--7--5--|
|-----2-----0--2--------------------------5--7-----------------7-------------------------------|
|-----------------3---0---0--------------------------------------------------------------------|

1/4 |wammy w/ bar``````````````````````````````````````````````````````````````````|
|-------/---------------------------------------------------------------------------------------|
|------/----------------------------------------------------------------------------------------|
|-----/---------9--rest--12--9--12--9--12--9--12--9--12--9--12---9---12--9--12--9--12--9--12--9-|
|--7b/----5--7----------------------------------------------------------------------------------|
|-------7---------------------------------------------------------------------------------------|
|-----------------------------------------------------------------------------------------------|

whew. . .well thats all of it. hope you understand the bends the way i notated them. good luck
and all that good stuff
Verse 1
I swear sometimes your taking me for granted.
I swear sometimes that your a whore.
I swear but I know there ain't no reason
'cuz everything is such a bore
Verse 2(just G F progression)
(N.C.)
I had a dream, don't make me sick, saw you in your bedroom
suckin' someone elses dick (my goodness!)
 GFGFG
 My friends all laughed, said it was my fault, said it's
time that it happened to me, but i know that the show was
much more than a low, so I'm waiting for the tide to get
low, waiting for the tide to get low
Break(Just bass)
Verse 3(same chord progession)
If I was an ant crawlin' upon the wall, tell me baby,
would it make no difference at all? If I was a roach on a
tree tell me, would you smoke me?
Bright lights put me in trance but it ain't house music,
makes me wanna dance, word, I don't gamble but I bet I'm
gonna die if I don't get a cigarette, trust me close I
always play the mac put the monkey on my back, mmmmhhmmm
Outro
If you have any suggestions, corrections of comments, Mail Me at pimprusty@hotmail.com and I'll do what
i can. Thanx.


A7 A7add4 B7 Bmaj9 Dm E E7 F G
variations - click chord images
Transpose chords:
Tuning:
Cool service:
View: Size:
A  A  A
Rating:
Layout:
  • Currently 4/5 Stars.
  • 1
  • 2
  • 3
  • 4
  • 5
 
Accuracy:
  • Currently 2.4/5 Stars.
  • 1
  • 2
  • 3
  • 4
  • 5
 
click stars to rate
Chordie recommends:
Learn how to play guitar at JamPlay.com
Songbook:
Login to add this song to your songbook
Support the artist
Preview/buy this song
MSN Music
Why this non-profit ad?

 
login to add comments/video/corrections