Smoke Two Joints

Sublime

Intro Chords (A-A-A-A-Dm-Dm-Dm-Dm)(3x)

             (A-A-A---G--G#---A)

Chords (A-A-A-A-F-F-F-G-G#-A)(2x)


 A
 I smoke two joints in the morning
 FG
 I smoke two joint at night 
 A
 I smoke two joint in the afternoon
 FG
 It makes me feel alright 
 A
 I smoke two joints in time of peace
 FG
 And two in time of war 
 A
 I smoke two joints before I smoke two joints
 FGG#
 And then I smoke two more  
 AFGG#AFGG#
                                         Break(samples and scratin')(same chord progression)
"smoked cigarettes 'til the day she died,
toke a big spliff of some good sensimillia
smoked cigarettes 'til the day she died
toke a big spliff of some good sensamill..."
"Easy-E were ya ever caught slippin'?" "hell no!"
Verse 2
 A
 Daddy he once told me,
 FG
"Son, you be hard workin' man" 
 A
 And momma she once told me,
 FG
"Son, you do the best you can" 
 G
 Then one day I meet a man,
 F
He came to me and said yes.
 GF
 "I work good and i work fine,
 E
but first take care of head"
Solo(my lame attempt and part of it)
E|-~~8--8-8-0-7---8-7--5------~~8--8-8-0-7---8-7--5-----|
B|------------------------------------------------------|
G|------------------------------------------------------|
D|------------------------------------------------------|

~ means slide
 GAGACDCD
E|------------------------------------------------------|
B|------------------------------------------------------|
G|------------------------5~~7-7-7---5~~7-7-7-----------|
D|--5~~7-7-7---5~~7-7-7---5~~7-7-7---5~~7-7-7-----------|
A|--5~~7-7-7---5~~7-7-7---3~~5-5-5---3~~5-5-5-----------|
E|--3~~5-5-5---3~~5-5-5---------------------------------|

Outro
Whoa rock me to the night
Ja say
(Chords  A-A-A-A-Dm-Dm-Dm-Dm)

If you have any suggestions, corrections of comments, Mail Me and I'll do what
i can. Thanx.


A C D E F G G#
variations - click chord images
Transpose chords:
Tuning:
Cool service:
View: Size:
A  A  A
Rating:
Layout:
  • Currently 3.3/5 Stars.
  • 1
  • 2
  • 3
  • 4
  • 5
 
Accuracy:
  • Currently 2.5/5 Stars.
  • 1
  • 2
  • 3
  • 4
  • 5
 
click stars to rate
Chordie recommends:
Learn to play guitar with video-based, online guitar lessons at JamPlay.com
Songbook:
Login to add this song to your songbook
Support the artist
Preview/buy this song
MSN Music
Why this non-profit ad?

 
login to add comments/video/corrections