Guitar Tabs, Chords and Lyrics


Steppin' Razor  Sublime

E|--------14--12-7s9---99999999--99h12-12-12-9-9-12-12-9-12-|


B|-12-12----------------------------------------------------|


G|----------------------------------------------------------|


D|----------------------------------------------------------|


A|----------------------------------------------------------|


E|----------------------------------------------------------|


E|--9s7s-7-7s9-7s9s2-999-12-12-9-9-12-12-9-12-9s7-7s6-------|


B|----------------------------------------------------------|


G|----------------------------------------------------------|


D|----------------------------------------------------------|


A|----------------------------------------------------------|


E|----------------------------------------------------------|

If you wanna [B]live, treat me [F#]good. If you wanna
[B]live, treat me [F#]good. I'm like a [Aadd#9]Steppin' Razor to watch my
sides, I'm [F#(add#9]dangerous, so dangerous. I'm like a
[Aadd#9]Steppin' Razor to watch my sides, I'm [F#(add#9]dangerous, so dangerous.
Verse 2
If you are a [B]bully, treat me [F#]good. If you are
a [B]bully, a bully, baby treat me [F#]good. I'm like a [Aadd#9]Steppin' Razor
to watch my sides, I'm [F#(add#9]dangerous, so dangerous. I'm like a [Aadd#9]Steppin'
Razor to watch my sides, I'm [F#(add#9]dangerous,
so dangerous. If you wanna [B]live...
Break/Solo(Same chords used above)
E|--14-12-------------------12-------------------------------|
B|---------12b(bend)14--b14-----14b12-----10b12b10---7--7----|
G|-------------------------------------------------------9-6-|
D|-----------------------------------------------------------|
A|-----------------------------------------------------------|
E|-----------------------------------------------------------|
E|-----------------------------------------------------------|
B|------------------------------10---------------------------|
G|-----------------------9--11-------11----11-9--------------|
D|-9-7------------9--11-------------------------11-9---------|
A|-----9-7s9--12---------------------------------------------|
E|-----------------------------------------------------------|
E|-----------------------------------------------------------|
B|-----------------------------------------------------------|
G|-----------------------------------------------------------|
D|-----------------------------------------------------------|
A|-12-9-7---7-----4---2----0---------------------------------|
E|-----------------------------0----0--1---1s5s7-------------|     

Similar bass line used at end but varies slightly.
E|---------------------------------|
B|---------------------------------|
G|---------------------------------|
D|---------------------------------|
A|---------------------------------|
E|---5----5---8-7-5---2--0-0-2-----|

Strange Chords
[Aadd#9]            [F#(add#9]                                                                                         
--0--        --0--
--0--        --0--
--6--        --3--
--7--        --4--
--7--        --4--
--5--        --2--


Important: The song above is NOT stored on the Chordie server. The original song is hosted at www.xguitar.com. Chordie works as a search engine and provides on-the-fly formatting. Chordie does not index songs against artists'/composers' will. To remove this song please click here.

Text color:
Chord color:
Chord grids: 
Font size:    
Page size: 

B F#
variations - click chord images

Login - add to songbook

Transpose chords

Tuning

Rating click stars to rate

Layout
Accuracy

SHARE PAGE  




You need to log in to post comments