"yes"; ?> Thanx Dub by Sublime - guitar chords, guitar tabs and lyrics - chordie

Thanx Dub

Sublime

 Dm
E|---10---10---10---10---10---10---10---10---|
B|---10---10---10---10---10---10---10---10---|
G|---10---10---10---10---10---10---10---10---|
D|---12---12---12---12---12---12---12---12---|
A|-------------------------------------------|
E|-------------------------------------------|  

(0:31 - 0:37)
 DmABbF
E|---10---10---5---5---6---6----8----8-------|
B|---10---10---5---5---6---6---10---10-------|
G|---10---10---6---6---7---7---10---10-------|
D|---12---12---7---7---8---8---10---10-------|
A|-------------------------------------------|
E|-------------------------------------------|                                          

(0:38 - 0:57)
 Dm
E|---10---10---10---10---10---10---10---10---|
B|---10---10---10---10---10---10---10---10---|
G|---10---10---10---10---10---10---10---10---|
D|---12---12---12---12---12---12---12---12---|
A|-------------------------------------------|
E|-------------------------------------------|  

(0:57 - 1:07)
 DmABbF
E|---10---10---5---5---6---6----8----8-------|
B|---10---10---5---5---6---6---10---10-------|
G|---10---10---6---6---7---7---10---10-------|
D|---12---12---7---7---8---8---10---10-------|
A|-------------------------------------------|
E|-------------------------------------------|   

 DbBDbB
E|---9--9---9--9---7--7---9--9---9--9---7--7-|
B|---9--9---9--9---7--7---9--9---9--9---7--7-|
G|--10-10--10-10---8--8--10-10--10-10---8--8-|
D|--11-11--11-11---9--9--11-11--11-11---9--9-|
A|-------------------------------------------|
E|-------------------------------------------|  

(1:08 - 2:30)
**This basic chord progression repeats a few more times with slight
changes but this should be a good enough help to get the rest**
(2:31 - 3:08)
E|----------------------------------|
B|----------------------------------|
G|-----2------2-------2------2------|
D|---0---0--2---2---0---0--2---2----|
A|----------------------------------|
E|----------------------------------|

**The rest is mostly soloing which I really don't have time to figure out
right now. But if you can figure it out, you can send it to me**
If you have any suggestions, corrections of comments, Mail Me and I'll do what
i can. Thanx.

























A B Bb Db Dm F
variations - click chord images
Transpose chords:
Tuning:
Cool service:
View: Size:
A  A  A
Rating:
Layout:
  • Currently 3/5 Stars.
  • 1
  • 2
  • 3
  • 4
  • 5
 
Accuracy:
  • Currently 2.9/5 Stars.
  • 1
  • 2
  • 3
  • 4
  • 5
 
click stars to rate
Chordie recommends:
Learn to play guitar with video-based, online guitar lessons at JamPlay.com
Songbook:
Login to add this song to your songbook
Support the artist
Preview/buy this song
MSN Music
Why this non-profit ad?

 
login to add comments/video/corrections