Chordie logo

Date Rape   Sublime



---------------------------------------------------------------------------------
---------------------------------------------------------------------------------
-9--9--9--10--10--10--9----------9--9--9--10-10-10--9----------------------------
---------------------------------------------------------------------------------
-7--7--7--8--8--8--8--7----------7--7--7--8--8--8---7----------------------------
---------------------------------------------------------------------------------

------------------------------
--10--10--10--11--11--11----10
-----------------------------
--7----7---7---8---8---8-----7
-----------------------------
-----------------------------

verse
--------5----5------7-----7----7----7----7----7----7----7----7----7----7----7----7
------6------6------8-----8----8----8----8----8----8----8----8----8----8----8----8
----5---------------9-----9----9----9----9----9----9----9----9----9----9----9----9
----------------------------------------------------------------------------------
----------------------------------------------------------------------------------

----3-------2---------1---------0
----3-------2---------1---------0
----4-------3---------2---------0
----5-------4---------3---------2

---7----7----7----7----5---5---5---5---5---5---5---5---7---7---7---7
---8----8----8----8----5---5---5---5---5---5---5---5---7---7---7---7
---9----9----9----9----5---5---5---5---5---5---5---5---8---8---8---8
--------------------------------------------------------------------
--------------------------------------------------------------------
--------------------------------------------------------------------

---8---8---7---7-----7--7--7--7-----7----7--7--7---7--7--7--7----7----------------
---8---8---7---7--8--8--8--8--8-----8----8--8--8---8--8--8--8----8--------6
---9---9---8---8--9--9--9--9--9-----9----9--9--9---9--9--9--9----9--------7
---------------------------------------------------------------------------
---------------------------------------------------------------------------
---------------------------------------------------------------------------


----7----7--7--7----7--7--7--7----5--5--5--5----5---5--5--5
-7--7----7--7--7----7--7--7--7----5--5--5--5----5---5--5--5
-8--8----8--8--8----8--8--8--8----5--5--5--5----5---5--5--5
-----------------------------------------------------------
-----------------------------------------------------------
-----------------------------------------------------------

next whole line is 7 play this 16x on the top 3 strings
                   8
                   9

---7--7--7--7          --8----8\\7---7---------------
---7--7--7--7          --8----8\\7---7\\-8--8--8--8--8
-8-8--8--8--8  2 times --9----9\\8---8\\-9--9--9--9--9
-------------          -----------------------------
-------------          -----------------------------
-------------          -----------------------------


then do this

-------------------------------------------------------               ----------
-------------------------------------------------------               ----------

then this

-10--10---10---10---10---------------------------------7---7---7---7---7---7
-10--10---10---10---10-----12--12--12--12-------8---8--8---8---8---8---8---8
-11--11---11---11---11-----11--11--11--11-------8---8--9---9---9---9---9---9
-12------------------------13--13--13--13-------9---9--9---9---9---9---9---9
----------------------------------------------------------------------------
----------------------------------------------------------------------------


---7--7----7--8----5-----7--7--8----5----7----------------7--7---8
---8--8--7-7--8----5-----5--7--8----5----8--7-----8----5--8--7---8
---9--9----8--9----5--------8--9----5----9--8-----9----5--9--8---9
---9--9-------------------------------------9-----10---7----------
------------------------------------------------------------------

--------------------------------------7-----7------7-----7-----------
--7------7-----7-----7-----7-----7----7-----7------7-----7-------7--7
--8------8-----8-----8-----8-----8----8-----8------8-----8-------8--8
--9------9-----9-----9-----9-----9----9-----9------9-----9-------9--9
---------------------------------------------------------------------
---------------------------------------------------------------------

-------------7---7------7----7--------7------------------------------
--7----7-----7---7------7----7--------7------------------------------
--8----8-----8---8------8----8--------8------------------------------
--9----9---------9------9----9---------------------------------------
---------------------------------------------------------------------
---------------------------------------------------------------------


SOLO

------------------------------------------12-------------------------------
------------8-------10--8-----10full--------10full(10)-----8---10-8-------8
----7full-----------------------------------------------------------9------
---------------------------------------------------------------------------
---------------------------------------------------------------------------
---------------------------------------------------------------------------

---------------------------------------------------------------------------
-8-------------------------------------------------------------------------
-----9---7---9-----9-7---------------------------------------------7--9--9-
-----------------------7--------(7)--5---7-5------------5--7--8--9---------
---------------------------------------------7-5-6---7---------------------
---------------------------------------------------------------------------

---------------------------------------------------------------------------
--------/10----------8---------7-8-7--------------8--------------8--------10
--(9)\\---------------------------------7--9----------------9----------9----
---------------------------------------------------------------------------
---------------------------------------------------------------------------
---------------------------------------------------------------------------

----------------------------------------------------------7----------7-------7
--------10-----10--10------------10--------10-----10---8---10full------10full
--9--9------9-----------9-----9------9--9------9---------------------------
---------------------------------------------------------------------------
---------------------------------------------------------------------------
---------------------------------------------------------------------------

----------------------------------------------------------------------------

-10full--(10)----8----10--8-------8-------8----10full-----8-----------------
------------------------------9-------9----------------------9--7---9--9--9-
----------------------------------------------------------------------------
----------------------------------------------------------------------------
----------------------------------------------------------------------------

------------------5-----------------------------------------------------------
------------------5---5---5---5---5---5---5---5----8---8---8---10---10---10---
-10-10-10---9\\----6---6---5---5---5---5---5---5----8---8---8---10---10---10---
------------------7---7---7---7---7---7---7---7----9---9---9---10---10---10---
------------------------------------------------------------------------------
------------------------------------------------------------------------------

-------------------------------------------------------------------------------
-8-------------------5---5---5---6---6---6---5----5---8---8---8---10---10--10--8
-8-------------------6---6---6---7---7---7---6----6---8---8---8---10---10--10--8
-9-------------------7---7---7---8---8---8---7----7---9---9---9---10---10--10--9
-------------------------------------------------------------------------------
-------------------------------------------------------------------------------

--7------------6-------5------12-------------------7-----7-----7-----7---------
--8------------7-------6------12--------12---------8-----8-----8-----8---------
--7------------6-------5------12--------12---------9-----9-----9-----9---------
------------------------------10--------10-------------------------------------
-------------------------------------------------------------------------------
-------------------------------------------------------------------------------

--5-----------------5--------5--------7--------7----8-------7----7--7---7---7--
--5-----------------5--------5--------7--------7----8-------7----8--8---8---8--
--5-----------------5--------5--------8--------8----9-------8----9--9---9---9--
--------------------------------------9--------9----10------9----9--9---9---9--
-------------------------------------------------------------------------------
-------------------------------------------------------------------------------

-7---7---7---7------8----8----8----8--------------------------------------------
-7---7---7---7------8----8----8----8------12---12---12----12------------12------
-8---8---8---8------9----9----9----9------12---12---12----12-----9--12-------9--
-9---9---9---9------10---10---10---10-----12---12---12----12--------------------
--------------------------------------------------------------------------------
--------------------------------------------------------------------------------

--------------------------------------------------------------------------------
------12------------------------------------------------------------------------
--12------------------11------------ 11------------12---------------12----------
------------9----13--------9---13--------10---14------10------14----------------
--------------------------------------------------------------------------10--14-
--------------------------------------------------------------------------------

-------------------------{7---------------8---8---8---8-------------------------
-------------------------{8---------------8---8---8---8------12---12---12-------
-------------------------{9---------------9---9---9---9------12---12---12-------
---12-------------12-----{9-do this-8x----10--10--10--10-----12---12---12-------
-------10-----14----------------------------------------------------------------
--------------------------------------------------------------------------------

---------------------------------------------------------------------------------
---------------------------------------------------------------------------------
--9------------7-----------------------------------------------------------------
--9-----9------7----7---------9-----9---------------------------------------------
--7-----9------5----7---------9-----9---------------------------------------------


Important: The song above is NOT stored on the Chordie server. The original song is hosted at www.xguitar.com. Chordie works as a search engine and provides on-the-fly formatting. Chordie does not index songs against artists/composers will. To remove this song please click here.

This song is displayed as text-only. Transposing and tuning is only available for chordpro-songs.

Login - add to songbook

Rating click stars to rate

Layout
Accuracy

SHARE PAGE  



You need to log in to post comments