Seed

Sublime

 AF
 janie alway said i was a mess
 G
sorry bout that mess
 CAD
i made her bleed i'm planting my seed
 G
still i knew she could take it
 CA
if i opened up the rhythm i knew it could make it
 FGC
 but i hope her parents love her so
Verse 2:
 AF
 feelin all the acid on the brain
 G
still i got that frame
 CA
i made her bleed yeah she wants that lovin' you see
 DG
well if you live you wanna give or get old
 CA
and if you never knew that we get old
 DG
you live it up you live it up you get old
 CA
 believe me when i say
 FG
its' the same shit everyday
 CA
but i got to know my place
 DG
and if you don't it smacks you in your face i know
 FG
 i know her parents love her
 FG
 i hope her parents love her
 BbFA
 i hope her parents love her so
Solo (A---F---D---E) 2X

(solo - w/ distortion stilll)
|-hold-| |-hold-|
E|----------------------------------------------------------------------------
B|----------------------------------------------------------------------------
G|-----------17-19-19b20-20-20b19p17h19--------------17-19-19b20-20-20b19p17--
D|-19--19-19--------------------------------------19--------------------------
A|-----------------------------------------20--20-----------------------------
E|----------------------------------------------------------------------------
E|----------------------------------------------------------------------------
B|--17----17--17----17--17----17--17----17--17----17--17----17--17----17------
G|--19b21-----19b21-----19b21-----19b21-----19b21-----19b21-----19b21---------
D|----------------------------------------------------------------------------
A|----------------------------------------------------------------------------
E|----------------------------------------------------------------------------
E|----------------------------------------------------------------------------
B|--17----17--17----17--17----17----------------------------------------------
G|--19b21-----19b21-----19b21--------------5-7-7b8--8b7-5--------5-7b8-8-8b7--
D|-------------------------------------7-7---------------------7--------------
A|--------------------------------------------------------8--8----------------
E|----------------------------------------------------------------------------
E|----------------------------------------------------------------------------
B|----------------------------------9-----------------------------------------
G|--5-7-5-7----9--9--9--9--9--9--9--------------------------------------------
D|----------------------------------------------------------------------------
A|----------------------------------------------------------------------------
E|----------------------------------------------------------------------------

Verse 3:
 AF
 billyed backed in 1983
 G
what did you do for me
 CAD
i made her bleed  i'm planting my seed
 G
 i knew we could make it
 CA
 i only knew that the bitch would break it yeah
 FG
 i hope her parents love her so
 AFG
 my god look at me if he had to go
 CA
i know i'm barely lovin' my holy  creed
 DG
you never knew that was what you need
 CA
 oh my god honestly
 DG
 believe it or not its a disease
 FG
 well i hope her parents love her
 BbFA
 i hope her parents love her so


A Bb C D F G
variations - click chord images
Transpose chords:
Tuning:
Cool service:
View: Size:
A  A  A
Rating:
Layout:
  • Currently 3.8/5 Stars.
  • 1
  • 2
  • 3
  • 4
  • 5
 
Accuracy:
  • Currently 3.3/5 Stars.
  • 1
  • 2
  • 3
  • 4
  • 5
 
click stars to rate
Chordie recommends:
Get acoustic guitar lessons and electric guitar lessons at JamPlay.com
Songbook:
Login to add this song to your songbook
Support the artist
Preview/buy this song
MSN Music
Why this non-profit ad?

 
login to add comments/video/corrections