Guitar Tabs, Chords and Lyrics


What I Got (reprise)   Sublime



Band: Sublime
Song: What I Got (Reprise)
Album: Self-titled
Tabbed By: Justin Bortnicker
Comments: If you have any suggestions, corrections of comments, Mail Me 
    and I'll do what I can. Thanx.
Tuning: Standard (EADGBE) 

Intro: (acoustic guitar)
     D       G          D        G
E|-----------------------------------------------|
B|-----3--3---------3------3-3----------3--------|
G|----2---2------0--0-----2--2-------0--0--------|
D|---0-----0---0------0--0-----0---0------0------|
A|-----------------------------------------------|
E|-----------3-------------------3---------------|

The whole song is based on this simple two-chord thing with
variations of the strumming and picking.

Short Solo Part:
E|-------------------------------------------|
B|--------------6------------7--5--5--3------|
G|--------5--7-----7p5--7----7--5--5--4------|
D|-----7-------------------------------------|
A|-------------------------------------------|
E|-------------------------------------------|

E|------------------10---------------------------------------|
B|-----------10h12-----12--12-10--12--13--12--10-------------|
G|---11\12---------------------------------------(12^14)-----|
D|-----------------------------------------------------------|
A|-----------------------------------------------------------|
E|-----------------------------------------------------------|

Other solo licks are in 7th position ( D pentatonic )

Lyrics:

Early in the mornin' ,risin' to the street
Light me up that cigarette and i strap shoes on my feet
got to find a reason, a reason things went wrong
got to find a reason why the money's all gone
but I got a dalmation and I can still get high
I can play the guitar like a motherfuckin' riot.

Life is (too short) so love the one you got
cause you might get run over or you might get shot
never start no static I just get it off my chest
never had to battle with no bulletproof vest
take a small example a tip from me
take all of your money , give it up to charity
lovin's what I got it within reach
sublime style's still straight from long beach
it all comes back to you you're gonna get what you deserve
try and test that you're bound to get served
love's what I got don't starta riot
you feel it when the dance gets hot

Chorus:
Lovin..is what I got said remember that

I don't cry when my dog runs away
I don't get angry at the bills i have to pay
I don't get angry when my mom smokes pot
hits the bottle and goes back to the rock
fuckin' and fightin' it's all the same
livin' with louie dog's the only way to stay sane
let the lovin come back to me.

Lovin...is what I got said remember that.....



Important: The song above is NOT stored on the Chordie server. The original song is hosted at www.xguitar.com. Chordie works as a search engine and provides on-the-fly formatting. Chordie does not index songs against artists'/composers' will. To remove this song please click here.

This song is displayed as text-only. Transposing and tuning is only available for chordpro-songs.

Login - add to songbook

Rating click stars to rate

Layout
Accuracy

SHARE PAGE  




You need to log in to post comments