Guitar Tabs, Chords and Lyrics


American Pig    Sugar Ray



American Pig
Sugar Ray
Floored

Intro/Verse:
-----------------------------------
-----------------------------------
-----------------------------------
---1-1-1---2-2-2---1-1-1---2-2-2---
---1-1-1---2-2-2---1-1-1---2-2-2---
---1-1-1---2-2-2---1-1-1---2-2-2---

Pre-verse:
----------------------------
---9-10-9-7-9--10-7-9-7-6---
----------------------------
----------------------------
----------------------------
----------------------------

Chorus:
--------------------------
--------------------------
--------------------------
---0--4-3-1--1-0--1-3-1---
---0--4-3-1--1-0--1-3-1---
---0--4-3-1--1-0--1-3-1---

Bridge 1:
------------------------|--------------------------
------------------------|--------------------------
------------------------|-------4-6-4--------------
---0--------------------|---0----------------------
---0--2-4-2-------------|---0----------------------
---0---------0--0-2-0---|---0-----------0--0-2-0---

Bridge 2:
-----------------------|-------|--------
-----------------------|-------|--------
-----------------------|-------|--------
---0-5-3-4-x-x-x-x-x---|---4---|---4/---
---0-5-3-4-x-x-x-x-x---|---4---|---4/---


Important: The song above is NOT stored on the Chordie server. The original song is hosted at www.xguitar.com. Chordie works as a search engine and provides on-the-fly formatting. Chordie does not index songs against artists'/composers' will. To remove this song please click here.

This song is displayed as text-only. Transposing and tuning is only available for chordpro-songs.

Login - add to songbook

Rating click stars to rate

Layout
Accuracy

SHARE PAGE  




You need to log in to post comments