Fly

Sugar Ray

E|-12-12-12-12-10-10-10-10--9-9-9-9--------------------|

B|----------------------------------10b10b10b-10-8-7h8-|
G|-----------------------------------------------------|
D|-----------------------------------------------------|
A|-----------------------------------------------------|
E|-----------------------------------------------------|
E|-----------------------------------------------------|
B|------10b10b10b-10-8-7h8--10-10-8-7h8----------------|
D|----------------------------------------9-9-9b9b-----|
D|-----------------------------------------------------|
A|-----------------------------------------------------|
E|-----------------------------------------------------|

 AD
 All around the world statues
 AD
 crumble for me.
 AD
 Who knows how long I've loved you?
 AD
 Everywhere I go people
 AD
 Stop and they see,
 AD
 Twenty five years old
 AD
 My mother God rest his soul.

First Chourus:
 ADAD
 I just wanna fly  
 AD
 Put your arms around me baby
 AD
 Put your arms around me baby
 ADAD
 I just wanna fly     
 AD
 Put your arms around me baby
 AD
 Put your arms around me baby
Yeah!

RIFF1

Verse 2:
Dance a little stranger
Show me where you've been.
Love can make you hostage
Wanna do it again!
There's no time to tink 'bout the starting or the end.
We'll find out I'm sure
My mother she told me so.

Chourus 2:
 ADAD
 I just wanna fly    
 AD
 Put your arms around me baby
 AD
 Put your arms around me baby
 ADAD
 I just wanna fly   
 AD
 Put your arms around me baby
 AD
 Put your arms around me baby
 EDAD
Cause I just want to fly.           

BRIDGE

Verse 3:
Allllllllllll around the world
statues crumble for me.
Who knows how long I've loved you?
Everywhere I go people
Stop and they see,
Twenty five years old
My mother God rest his soul.

That is the hole song YYYEEEAAAAA


A D E
variations - click chord images
Transpose chords:
Tuning:
Cool service:
View: Size:
A  A  A
Rating:
Layout:
  • Currently 3.5/5 Stars.
  • 1
  • 2
  • 3
  • 4
  • 5
 
Accuracy:
  • Currently 3.6/5 Stars.
  • 1
  • 2
  • 3
  • 4
  • 5
 
click stars to rate
Chordie recommends:
Learn to play songs at Jamplay.com with video guitar lessons
Songbook:
Login to add this song to your songbook
Support the artist
Preview/buy this song
MSN Music
Why this non-profit ad?

 
login to add comments/video/corrections