Guitar Tabs, Chords and Lyrics


Daddy's Little Defect    Sugarcult



Intro Play 2x   Guitar 1 plays on the B string Guitar 2 plays the rest
E--------------------------------------------------------------------------------------|
B--444444444444--------------4444---------------4444----------------4444---------------|
G--------------------------------------------------------------------------------------|
D-------------------------------------------------------------------------6-6—---------|
A-------------------6-6--6------------ 6-6-6--------------4-4-4-----------4-4------4-4-|
E-------------------4-4--4-------------4-4-4--------------4-4-4--------------------2-2-|
Verse Play 2x guitar 1
E-----------------------------------------------------|
B-----------------------------------------------------|
G-----------------------------------------------------|
D---------------------------------6-6-6---------------|
A-------6-6--6----6-6-6---6-6-6---4-4-4---4-4---------|
E-------4-4--4----4-4-4---4-4-4-----------2-2---------|

Pre-Chorus   Guitar 1 2x                                             Play on 2nd time
E-------------------------------------------------------------------|----------------|
B-------------------------------------------------------------------|----------------|
G-------------------------------------------------------------------|----------------|
D---------------------6-6-6-6-----------8-8-------------------------|----------------|
A---6-6-6-6-6-6-6-6---4-4-4-4---4-4-4-4-6-6-4-4---------------------|-2-2-2-2-2-2-2--|
E---4-4-4-4-4-4-4-4-------------2-2-2-2-----2-2---------------------|-0-0-0-0-0-0-0--|
Chorus  Both Guitars                                                                                          3 times                                                           Play on 3rd time
E---------------------------------------------------------------|--------------------|
B---------------------------------------------------------------|--------------------|
G---------------------------------------------------------------|--------------------|
D-------------------------------------6-6-6-6-6-6-6-6-----------|--------------------|
A------6-6-6-6-6-6-6-6----------------4-4-4-4-4-4-4-4-----------|-6-6-6-6-6-6-6-6----|
E------4-4-4-4-4-4-4-4------------------------------------------|-4-4-4-4-4-4-4-4----|

Bridge guitar 1 (figure out how many times to play)
E------------------------------------------------------------6-3-6-3-6-3-6-3-6-3-----|
B-----11------10 ------4-------------6---------11------------------------------------|
G------------------------------------------------------------------------------------|
D------------------------------------------------------------------------------------|
A------------------------------------------------------------------------------------|
E------------------------------------------------------------------------------------|
                                                  P.M. ------------------------------
Order of song:
Intro
Verse
Pre chorus
Intro
Verse
Pre chorus
Chorus
Bridge


Important: The song above is NOT stored on the Chordie server. The original song is hosted at www.xguitar.com. Chordie works as a search engine and provides on-the-fly formatting. Chordie does not index songs against artists'/composers' will. To remove this song please click here.

This song is displayed as text-only. Transposing and tuning is only available for chordpro-songs.

Login - add to songbook

Rating click stars to rate

Layout
Accuracy

SHARE PAGE  




You need to log in to post comments