Chordie logo

How Will I Laugh Tomorrow    Suicidal Tendencies





   Suicidal Tendencies - How will I Laugh Tomorrow

Just all the riffs (sorry no solo's)
I hope i haven't left anything else out
As usual you'll have to find where everything goes yourself
Anybody know if you can get any ST tab books anywhere?
Any truth in the rumour that there is a new ST cd out
    entitled something like 'suicidal for life'

Clean guitar
e-------------------------------------------------------------------------
b--------0-0h1p0----------1-0-1------------0-0h1p0------------------------
g------2---------2--------------0--------2---------2--------0-----0-------
D----2-------------2----2---------2----2-------------2----2-----4---2/4\2-
A--0------------------3--------------0------------------3-----5-----3/5\3-
E-------------------------------------------------------------------------


e------------------------------------------
b------------------------------------------
g--2-------------2------5-5---/7-7---5-5---
D--2------3------2------5-5---/7-7---5-5---
A--0------3------0------3-3---/5-5---3-3---
E---------1--------------------------------

e------------------------------------------
b------------------------------------------
g--2-------------2-------------------------
D--2------3------2------4-----5-5--5\4-----
A--0------3------0------2-2-2-3-3--3\2-----
E---------1----------------------------3---

e---------------------------------------------------
b---------------------------------------------------
g--2------------------------------------------------
D--2----------5------2------4----------5---5-5\4----
A--0--0-0-0-0-3--0-0-0--0-0-2--2-2-2-2-3---3-3\2----
E------------------------------------------------3--

Palm Mute all this part...
e---------------------------------------------------
b---------------------------------------------------
g---------------------------------------------------
D--------4--------5--------7---7----3-2-0-----------
A--0--0--2--0--0--3--0--0--5-5-5----------3-2-0-----
E-----------------------------------------------3---


e---------------------------------------------------
b---------------------------------------------------
g--0--2-----2--0--2-----2--0--2-----2-------------5-
D--0--2-----2--0--2-----2--0--2-----2------3------5-
A-----0-0-0-0-----0-0-0-0-----0-0-0-0------3------3-
E--3-----------3-----------3---------------1--------

e---------------------------------------------------------------
b---------------------------------------------------------------
g---------------------------------------------------------------
D---------------------------------------------------------------
A-----------------5\4---5\4---5-\4------------------5\4---7\5-2-
E--0-0-0-0-0-0-0--3\2-x-3\2-x-3-\2---0-0-0-0-0-0-0--3\2-0-5\3-0-

e--------------------------------------------------------------
b--------------------------------------------------------------
g--------------------------------------------------------------
D--------------------------------------------------------------
A-----------------5\4---5\4---5-\4------------------5\4--7-6-5-
E--0-0-0-0-0-0-0--3\2-x-3\2-x-3-\2---0-0-0-0-0-0-0--3\2--5-4-3-

g---------------5-------------------------4---5-5\4----------
D--2------------5------------3------------4---5-5\4----------
A--2------------3------------3------------2---3-3\2----------
E--0-------------------------1----------------------3--------


g---------------5-------------------------4---5-5\4----------
D--2------------5------------3------------4---5-5\4----------
A--2------------3--3-3-3-3-3-3------------2-2-3-3\2----------
E--0--0-0-0-0-0--------------1--1-1-1-1-1-----------3--------


e---------------------------------------------------------------
b---------------------------------------------------------------
g---------------------------------------------------------------
D-----------------5\4---5\4---5-\4------------------5\4---7\5-2-
A--0-0-0-0-0-0-0--3\2-x-3\2-x-3-\2---0-0-0-0-0-0-0--3\2-0-5\3-0-
E---------------------------------------------------------------

outro
e-----------------------0~~----
b--------0-0^1^0--------1~~----
g------2---------2------2~~----
D----2-------------2----2~~----
A--0--------------------0~~----


Important: The song above is NOT stored on the Chordie server. The original song is hosted at www.xguitar.com. Chordie works as a search engine and provides on-the-fly formatting. Chordie does not index songs against artists/composers will. To remove this song please click here.

This song is displayed as text-only. Transposing and tuning is only available for chordpro-songs.

Login - add to songbook

Rating click stars to rate

Layout
Accuracy

SHARE PAGE  

You need to log in to post comments