Chordie logo


Possessed to Skate    Suicidal Tendencies



PoSSESSED To SKATE
                              +==================+
  h - hammer on
  p - pull off
  b - bend (amount of bend above the measure)
  r - release bend
  x - muffled string
  / - slide up
  \ - slide down
  ~ - vibrato
A.H.- artificial harmonic

intro
|-------||-----------------------------------| X4
|-------||-----------------------------------|
|-------||-----------------------------------|
|-------||------2-0-1-0-----5-5-5-4-4-4-3-3--|
|--10\--||--0-0---------3-0-3-3-3-2-2-2-1-1--|
|-------||-----------------------------------|

guitar 2 (3rd time)
|----------------------------------|--------------------------------|
|----------------------------------|--------------------------------|
|----------------------------------|--------------------------------|
|------------------5-5-5-4-4-4-3-3-|-2-------------5-5-5-4-4-4-3-3--|
|------------------3-3-3-2-2-2-1-1-|-0-------------3-3-3-2-2-2-1-1--|
|----------------------------------|--------------------------------|

 1.   A.H.                        2.   A.H.
|--------------------------------|-------------------------------||
|--------------------------------|-------------------------------||
|--------------------------------|-------------------------------||
|--------------------------------|-------------------------------||
|------5-----4-----3-----3---4---|------5-----4-----3-----3---5--||
|--3-3---3-3---3-3---3-3-1---2---|--3-3---3-3---3-3---3-3-1---3--||

guitar 2
|--------------------------------|-------------------------------||
|--------------------------------|-------------------------------||
|--------------------------------|-------------------------------||
|--------------------------------|-------------------------------||
|--5---------------------3---4---|--5---------------------3---5--||
|--3---------------------1---2---|--3---------------------1---3--||

verse (both guitars)
|---------------------------------------------|
|---------------------------------------------|
|---------------------------------------------|
|------------------------2---2--2--5------5---|
|-----0--0--0-0-0--0--0--0---0--0--3--p0--3---|
|--3------------------------------------------|
   ....................

|-----------------------------------|
|-----------------------------------|
|-----------------------------------|
|-----------------------------------|
|--5-5-5-4-4-4-5-5-5-4-4-4-5-5-6-6--|
|--3-3-3-2-2-2-3-3-3-2-2-2-3-3-4-4--|

 "Beware he's possessed to skate"
                                                         X2   pick E5
|-----------------------------------------------------------|------------|
|-----------------------------------------------------------|------------|
|-----------------------------------------------------------|------------|
|--2-------------4-------------5------4------2--------------|------------|
|--0---0-0-0-0-0-2---0-0-0-0-0-3--0-0-2--0-0-0---0-0-0-0-0--|--2-----17\-|
|-----------------------------------------------------------|--0...------|
       .........     .........    ...    ...     .........
  "Cause he rips when he skates..."                         "So skate"

variation of previous riff
|-----------------------------------------------------------|
|-----------------------------------------------------------|
|-----------------------------------------------------------|
|--2-------------4-------------5------4------2-------5------|
|--0---0-0-0-0-0-2---0-0-0-0-0-3--0-0-2--0-0-0---0-0---0-3--|
|-----------------------------------------------------------|
       .........     .........    ...    ...

These are basically all riffs (except solo) of the song, you just need
to put them all together.



Important: The song above is NOT stored on the Chordie server. The original song is hosted at www.xguitar.com. Chordie works as a search engine and provides on-the-fly formatting. Chordie does not index songs against artists/composers will. To remove this song please click here.

This song is displayed as text-only. Transposing and tuning is only available for chordpro-songs.

Login - add to songbook

Rating click stars to rate

Layout
Accuracy

SHARE PAGE  




You need to log in to post comments