Guitar Tabs, Chords and Lyrics


Nothing On My Back   Sum 41



Song: Nothing on My Back
Artist: Sum 41
Album: All Killer No Filler
As tabbed by Joe Muggah

 =  harmonics
m  =  palm mute

Intro                     end on        reapeat
e-------------------------|-----------|--------------------
B-------------------------|-----------|--------------------
G------6/7\6--------7-7---|-----------|--------------------
D--7---6/7\6--5--x--7-7---|--7-7-7-7--|--7-7-7-7-7-7-7-----
A--7---4/5\4--5--x--5-5---|--7-7-7-7--|--x-x-x-x-x-x-x-----
E--5----------3--x--------|--5-5-5-5--|--5-5-5-5-5-5-5-----

Verse 1A (Guitar 1)
e----------------------------------------------------------
B----------------------------------------------------------
G----------------------------------------------------------
D--4-4--5--7-7---5--4--5--4-4--2-2---7-7-7--4-4--5--7-7----
A--4-4--5--7-7---5--4--5--4-4--2-2---7-7-7--4-4--5--7-7----
E--2-2--3--5-5---3--2--3--2-2--0-0---5-5-5--2-2--3--5-5----
("Was happiness a fad?")

(continued)
e----------------------------------------------------------
B----------------------------------------------------------
G---------------7-7-7-7-7-7-7-7--9-9-9-9-9-9-9-9-----------
D--5--4--5-5-5--7-7-7-7-7-7-7-7--9-9-9-9-9-9-9-9-----------
A--5--4--5-5-5--5-5-5-5-5-5-5-5--7-7-7-7-7-7-7-7-----------
E--3--2--3-3-3---------------------------------------------

Verse 1B (Guitar 2)                  end on
e--------------------------------------|-------------------
B--------------------------------------|-------------------
G--------------------------------------|-------------------
D--x-x-x--7-7-7--x-x-x--x-x-x--7-7-7---|-------------------
A--x-x-x--7-7-7--x-x-x--x-x-x--7-7-7---|----------
E--x-x-x--5-5-5--x-x-x--x-x-x--5-5-5---|----------

Chorus                         end on
e--------------------------------|-------------------------
B--------------------------------|-------------------------
G-------------7-7-7-7------------|-------------7-7-7-------
D--7-7-7-6-5--7-7-7-7--2-2-2-2---|--7-7-7-6-5--7-7-7--2----
A--7-7-7-6-5--5-5-5-5--2-2-2-2---|--7-7-7-6-5--5-5-5--2----
E--5-5-5-4-3-----------0-0-0-0---|--5-5-5-4-3---------0----
("With nothing on my back...")

Verse 2                             end on
e--------------------------------------|-------------------
B--------------------------------------|-------------------
G-----------------------------------7--|--7-7-7------------
D--------7--------5--------7--------7--|--7-7-7--2---------
A--------7--------5--------7--5m-5m-5--|--5-5-5--2---------
E--5m-5m-5--3m-3m-3--5m-5m-5-----------|---------0---------
("I might as well...")

Bridge 1A (Guitar 1)             1B (Guitar 2)
e-----|-----------------4-------|---------------12---------
B-----|-------------------5---5-|------------------12------
G--9\-|--7-7-------8-9------4---|-7-7-------8-9------------
D--9\-|--7-7--7-7--x-x----------|-7-7--7-7--x-x-------13-14
A--7\-|--5-5--7-7--6-7----------|-5-5--7-7--6-7------------
E-----|-------5-5---------------|------5-5-----------------

Bridge 2A (Guitar 1)   2B (Guitar 2)
e---------------------|------------------------------------
B---------------------|------------------------------------
G--7-7-------8--9-----|--7-7-------11--13------------------
D--7-7--7-7--x--x-----|--7-7--7-7---x---x------------------
A--5-5--7-7--6--7-----|--5-5--7-7---9--11------------------
E-------5-5-----------|-------5-5--------------------------

Fill 1           Fill 2
e---------------|------------------------------------------
B---------------|------------------------------------------
G---------------|------------------------------------------
D--7m--------2--|--7-7-7-7--5-5-5-5--7-7-7-7--5-5-5-5------
A--7m-(x16)--2--|------------------------------------------
E--5m--------0--|------------------------------------------

Riff A (Guitar 1)                     end on
e--------------------------------------|-------------------
B--------------------------------------|-------------------
G--------9--------7--------------------|-------------------
D--------9--------7--------9--------9--|-7-7-7-7--9-9-9-9--
A--7m-7m-7--5m-5m-5--------9--------9--|-7-7-7-7--9-9-9-9--
E--------------------7m-7m-7--7m-7m-7--|-5-5-5-5--7-7-7-7--

Riff B (Guitar 2)
e----------------------------------------------------------
B----------------------------------------------------------
G------9--------7------------------------------------------
D----9---9----7---7------9--------7------------------------
A--7--------5----------9---9----7---7----------------------
E--------------------7--------5----------------------------

Outro A (Guitar 1)
e----------------------------------------------------------
B----------------------------------------------------------
G--9-9-9-8-7--7-7------------------------------------------
D--9-9-9-8-7--7-7--7-7-7-7--9-9-9-9------------------------
A--7-7-7-6-5--5-5--7-7-7-7--9-9-9-9------------------------
E------------------5-5-5-5--7-7-7-7------------------------
("With nothing on my back...")

Outro B (Guitar 2)
e----------------------------------------------------------
B----------------------------------------------------------
G--9-9-9-9--11---------------------------------------------
D--x-x-x-x---x--9-9-9-9--12--------------------------------
A--7-7-7-7---9--x-x-x-x---x--------------------------------
E---------------7-7-7-7--10--------------------------------

Intro
Verse 1A
Verse 1A, 1B
Chorus
Intro
Verse 2
Chorus
Bridge 1A
Bridge 1A, 1B
Bridge 2A, 2B
Fill 1
Fill 2
Riff A
Riff A, B
Outro A, B


Important: The song above is NOT stored on the Chordie server. The original song is hosted at www.xguitar.com. Chordie works as a search engine and provides on-the-fly formatting. Chordie does not index songs against artists'/composers' will. To remove this song please click here.

This song is displayed as text-only. Transposing and tuning is only available for chordpro-songs.

Login - add to songbook

Rating click stars to rate

Layout
Accuracy

SHARE PAGE  




You need to log in to post comments