Chordie logo


88   Sum 41



Tabbed By Fenton Bentez angd the Savvoi Arcadians
Intro
e------------------------------------------------------------------|
G------------------------------------------------------------------|
B--------------------------------------------22--------------------| Play
D----5-4-22------5-4-22------4-5-44------4-5-----------------------|  4x
A-------------3-3-3-3-----0-0-0-0-----2-2-2-2----------------------|
E-0-0-0-0----------------------------------------------------------|

Guitar 2 (intro) *light distortion - with bass and drums
e--7~--------------------------------------|
G--8~-----10---10--12-12-12-12-12-12-12-12-|
B--9~--------9------9--9--9--9--9--9--9--9-|
D--9~--------------------------------------|
A--7~--------------------------------------|
E------------------------------------------|

e|----------------------|
G|-12-8x-13-8x-10-8x-12-|
B|--9-----9-----9-----9-|
D|----------------------|
A|----------------------|
E|----------------------|

Guitar 1 *clean* "Wait.."
e-----0-----0-----0-----|            e---0---|
G-----0-----1-----1-----|            G---0---|
B-----0-----0-----2-----|            B---0---|
D-----2-----2-----2-----|    End On  D---2---|
A-----2-----3-----0-----|            A---2---|
E-----0-----x-----x-----|            E---0---|

Guitar 1 *distortion* "Cuz I feel like..."
e---------------------------------------------|
G---------------------------------------------|
B---------------7-7-7-7-7-5-5-5-5-5-----------|Play
D---2-2-2-2-2-2-7-7-7-7-7-5-5-5-5-5-5-5-5-5-5-| 2x
A---2-2-2-2-2-2-5-5-5-5-5-3-3-3-3-3-5-5-5-5-5-|
E---0-0-0-0-0-0---------------------3-3-3-3-3-|

..continued
e-----------------------------------------------------------------------|
G-----------------------------------------------------------------------|
B---5-5-5-5-5-----------7-7-7-7-7-9-9-9-9-9--5----7---------------------|
D---5-5-5-5-5-5-5-5-5-5-7-7-7-7-7-9-9-9-9-9--5-8x-7-8x-5555-5555-5555-5-|
A---3-3-3-3-3-5-5-5-5-5-5-5-5-5-5-7-7-7-7-7--3----5----5555-5555-5555-5-|
E-------------3-3-3-3-3--------------------------------3330-3330-3330-3-|

Guitar 1 *palm muted*
e------------------------------------------------------------------|
G--------------------------play-twice------------------------------|
B------------------------------------------------------------------|
D--2-2-2-2-4-4-4-4-2-2-2-2-4-4-4-4-5-5-5-5-2-2-2-2-2-2-2-2-4-4-4-4-|
A--2-2-2-2-2-2-2-2-2-2-2-2-2-2-2-2-3-3-3-3-0-0-0-0-0-0-0-0-2-2-2-2-|
E--0-0-0-0---------0-0-0-0-----------------------------------------|

Guitar 1 *distortion*
e--------------------------------------------------------------------------|
G--------------------------------------------------------------------------|
B------------------5-5-5-5-5----------------------------5-5-5-5-5-7-7-7-7-7|
D-2.2.2.2.2.2.2.2.-5-5-5-5-5-5-5-5-5-5-2.2.2.2.2.2.2.2.-5-5-5-5-5-7-7-7-7-7|
A-2.2.2.2.2.2.2.2.-3-3-3-3-3-5-5-5-5-5-2.2.2.2.2.2.2.2.-3-3-3-3-3-5-5-5-5-5|
E-0.0.0.0.0.0.0.0.-----------3-3-3-3-3-0.0.0.0.0.0.0.0.--------------------|


Play this pattern fast I think theres an effect on it but i just trill it

e|--7-5-7-7-5-7-5-7-7--7-5---------------------------------------------------|
B|-------------------------8-7-----------------------------------------------|
G|-----------------------------7----------4-5-7-5-4-5-4----------------------|
D|-------------------------------4-5-7-4----------------5-4------------------|
A|----------------------------------------------------------5-3---3-5--------|
E|--------------------------------------------------------------7-----7------|


e|---------------------------------------------------------------------------|
G|---------------------------------------------------------------------------|
B|------------------5-5-5-5-5----------------------------5-5-5-5-5-7-7-7-7-7-|
D|-2.2.2.2.2.2.2.2.-5-5-5-5-5-5-5-5-5-5-2.2.2.2.2.2.2.2.-5-5-5-5-5-7-7-7-7-7-|
A|-2.2.2.2.2.2.2.2.-3-3-3-3-3-5-5-5-5-5-2.2.2.2.2.2.2.2.-3-3-3-3-3-5-5-5-5-5-|
E|-0.0.0.0.0.0.0.0.-----------3-3-3-3-3-0.0.0.0.0.0.0.0.---------------------|

                                                Guitar II starts on this:
e|---------------------------------------------|-----------------------------|
G|---------------------------------------------|-----------------------------|
B|---------------7-7-7-7-7-5-5-5-5-5-----------|--9--------------------------|
D|---2-2-2-2-2-2-7-7-7-7-7-5-5-5-5-5-5-5-5-5-5-|--7--------------------------|
A|---2-2-2-2-2-2-5-5-5-5-5-3-3-3-3-3-5-5-5-5-5-|--7--------------------------|
E|---0-0-0-0-0-0---------------------3-3-3-3-3-|-----------------------------|



e|---------------------------------------------------------------------------|
G|---------------------------------------------------------------------------|
B|---5-5-5-5-5-----------7-7-7-7-7-9-9-9-9-9--5----7-------------------------|
D|---5-5-5-5-5-5-5-5-5-5-7-7-7-7-7-9-9-9-9-9--5-8x-7-8x-5555-5555-5555-5-----|
A|---3-3-3-3-3-5-5-5-5-5-5-5-5-5-5-7-7-7-7-7--3----5----5555-5555-5555-5-----|
E|-------------3-3-3-3-3--------------------------------3330-3330-3330-3-----|



e|---------------------------------------------------------------------------|
G|---------------------------------------------------------------------------|
B|--------------------------------------------22-----------------------------|
D|----5-4-22------5-4-22------4-5-44------4-5--------------------------------|
A|-------------3-3-3-3-----0-0-0-0-----2-2-2-2-------------------------------|
E|-0-0-0-0-------------------------------------------------------------------|


Guitar I playing the backing for solo really fast
e|---------------------------------------------------------------------------|
B|---------------------------------------------------------------------------|
G|---------------------------------------------------------------------------|
D|--22222--------------------------------------------------------------------|
A|--22222--------------------------------------------------------------------|
E|--00000--------------------------------------------------------------------|


This the tapping part (this is the first time iv'e tabbed tapping hope its ok)
e|-----------------------------------------------------------------------|------|
B|--h12p8p5p0h5h8-x4--h13p8p5p0h5h8-x2--13p12p10-12p10---10--------------|------|
G|-----------------------------------------------------12--12-10------11-|------|x2
D|---------------------------------------------------------------9-12----|13b\\--|
A|-----------------------------------------------------------------------|------|
E|-----------------------------------------------------------------------|------|


break after the solo
e|---------------------------------------------------------------------------|
B|---------------------------------------------------------------------------|
G|---------------------------------------------------------------------------|
D|--22222----2222222222------------------------------------------------------|
A|--22222-x2-2222222222------------------------------------------------------|
E|--00000----0000000000------------------------------------------------------|


e|---------------------------------------------------------------------------|
B|---------------------------------------------------------------------------|
G|---------------------------------------------------------------------------|
D|--2-2-2-2-5-2-2-2-2-4-2-2-5------------------------------------------------|
A|--2-2-2-2-5-2-2-2-2-4-2-2-5------------------------------------------------|
E|--0-0-0-0-3-0-0-0-0-2-0-0-3------------------------------------------------|



e|---------------------------------------------------------------------------|
B|---------------------------------------------------------------------------|
G|---------------------------------------------------------------------------|
D|--22222----2222222222------------------------------------------------------|
A|--22222-x2-2222222222------------------------------------------------------|
E|--00000----0000000000------------------------------------------------------|



e|---------------------------------------------------------------------------|
B|---------------------------------------------------------------------------|
G|---------------------------------------------------------------------------|
D|--2-2-2-2-5-2-2-2-2-4-2-2-5------------------------------------------------|End On The E string let it feedback
A|--2-2-2-2-5-2-2-2-2-4-2-2-5------------------------------------------------|


Important: The song above is NOT stored on the Chordie server. The original song is hosted at www.xguitar.com. Chordie works as a search engine and provides on-the-fly formatting. Chordie does not index songs against artists/composers will. To remove this song please click here.

This song is displayed as text-only. Transposing and tuning is only available for chordpro-songs.

Login - add to songbook

Rating click stars to rate

Layout
Accuracy

Jango Player

SHARE PAGE  




You need to log in to post comments