Chordie logo


The Hell Song   Sum 41



Artist: Sum 41
Song: Hell
Album: Does this Look Infected (Out on Nov. 26)

Tuning: Standard
. = palm mute 
- = nothing 
/ = slide up
\ = slide down
h = hammer-on
p = pull off
x = dead note
~ = let note ring

First of all, I tabbed this out, If you are going to copy it for revision, at least 
give me credit for it. If you dont, I will rape your dog.
This song isnt actually out yet. Oh well, download it off Kazaa or something.


Sum-41
Hell


E|-----------------|------------------|-----------------|--------------------|
B|-----------------|------------------|-----------------|--------------------|
G|-----------------|------------------|-----------------|--------------------|
D|-----------1-----|-----------1------|-----------1-----|-----2-2--1-1-------|
A|-----2--4-----2--|-----2--4------2--|--2--2--4-----2--|---------------4-4--|
E|--4--------------|--0---------------|-----------------|--0-----------------|




E|----------------------------------------------------------------------|
B|----------------------------------------------------------------------|
G|------------------------------------4-4-4-4-4-4-4-4-------------------|
D|--6-6-6-6-6-6-6-6--2-2-2-2-2-2-2-2--4-4-4-4-4-4-4-4--4-4-4-4-4-4-4-4--|
A|--6-6-6-6-6-6-6-6--2-2-2-2-2-2-2-2--2-2-2-2-2-2-2-2--4-4-4-4-4-4-4-4--|
E|--4-4-4-4-4-4-4-4--0-0-0-0-0-0-0-0-------------------2-2-2-2-2-2-2-2--|

pm  ...............--...............--...............--...............--|



E|---------------------------------------------------------------------------|
B|---------------------------------------------------------------------------|
G|------------------------------------4-4-4-4-4-4-4-4------------------------|
D|--6-6-6-6-6-6-6-6--2-2-2-2-2-2-2-2--4-4-4-4-4-4-4-4--4-4--4--4-4--4--4--4--|
A|--6-6-6-6-6-6-6-6--2-2-2-2-2-2-2-2--2-2-2-2-2-2-2-2--4-4--4--4-4--4--4--4--|
E|--4-4-4-4-4-4-4-4--0-0-0-0-0-0-0-0-------------------2-2--2--2-2--2--2--2--|

pm  ...............--...............--...............--...-----...-----.-----|
 


E|---------------------------------------------------------------------------|
B|---------------------------------------------------------------------------|
G|------------------------------------4-4--4--4-4--4-------------------------|
D|--6-6--6--6-6--6---2-2--2--2-2--2---4-4--4--4-4--4---4-4--4--4-4--4--4--4--|
A|--6-6--6--6-6--6---2-2--2--2-2--2---2-2--2--2-2--2---4-4--4--4-4--4--4--4--|
E|--4-4--4--4-4--4---0-0--0--0-0--0--------------------2-2--2--2-2--2--2--2--|

pm  ...-----...------...-----...------...-----...------...-----...-----.-----|



E|-------------------------------------------------------------------------|
B|-------------------------------------------------------------------------|
G|--------------------9-9-9-9-9-9-9-9-9------------------------------------|
D|--6-6-6-6-6-6-6-6---9-9-9-9-9-9-9-9-9--9-9-9-9-9-9-9-9--4-4-4-4-4-4-4-4--|
A|--6-6-6-6-6-6-6-6---7-7-7-7-7-7-7-7-7--9-9-9-9-9-9-9-9--4-4-4-4-4-4-4-4--|
E|--4-4-4-4-4-4-4-4----------------------7-7-7-7-7-7-7-7--2-2-2-2-2-2-2-2--|



E|-----------------------------------|
B|-----------------------------------|
G|-----------------------------------|
D|--6-6--4----6-6---6-6---6-6---6-6--|
A|--6-6--4----6-6---6-6---6-6---6-6--|
E|--4-4--2----4-4---4-4---4-4---4-4--|




solo.

E|----------------------------------------------------------------------|
B|---9---9-9-9------9--9-9-9-----7--7-7-7-5----------5------------------|
G|--11^--------8---11^-------8---9^---------8-6--6-8---6-8-4-6-3/4-3\4--|
D|----------------------------------------------------------------------|
A|----------------------------------------------------------------------|
E|----------------------------------------------------------------------|


E|-------------------------|
B|----------9--------------|
G|--8-9-11----11-9\8--8-9--|
D|-------------------------|
A|-------------------------|
E|-------------------------|


E|-------------------------------------------------|
B|-------------------------------------------------|
G|--4h6-p4-h6-p4-h6-p4-h6---6h8-p6-h8-p6-h8-p6-h8--|
D|-------------------------------------------------|
A|-------------------------------------------------|
E|-------------------------------------------------|


E|-----------------------------------------------------|
B|-----------------------------------------------------|
G|--8h9-p8-h9-p8-h9-p8-h9---9h11-p9-h11-p9-h11-p9-h11--|
D|-----------------------------------------------------|
A|-----------------------------------------------------|
E|-----------------------------------------------------|


E|-----------------------------------------------------|
B|--9---x-x---11---x-x---12---x-x---14-----------------|
G|-11^--x-x---13^--x-x---14^--x-x---16^p13-------------|
D|-----------------------------------------------------|
A|-----------------------------------------------------|
E|-----------------------------------------------------|


E|-----------------------------------------------------|
B|--14^-14^-14^-14^p12----12---14^-14^-14-12-14-12-----|
G|---------------------13------------------------------|
D|-----------------------------------------------------|
A|-----------------------------------------------------|
E|-----------------------------------------------------|


E|------14-----------------14--------------------------|
B|--14^----14^-14-12---14^----14^-14-12----------------|
G|-----------------------------------------------------|
D|-----------------------------------------------------|
A|-----------------------------------------------------|
E|-----------------------------------------------------|


E|-----------------------------------------------------|
B|--11-11-12-11----------------------------------------|
G|--------------11-13----12----------------------------|
D|--------------------13----11-------12-------12-------|
A|-----------------------------14-14----14-14----14~---|
E|-----------------------------------------------------|


while in the background:

E|---------------------------------------------------------------------------|
B|---------------------------------------------------------------------------|
G|------------------------------------4-4-4-4-4-4-4-4------------------------|
D|--6-6-6-6-6-6-6-6--2-2-2-2-2-2-2-2--4-4-4-4-4-4-4-4--4-4--4--4-4--4--4--4--|
A|--6-6-6-6-6-6-6-6--2-2-2-2-2-2-2-2--2-2-2-2-2-2-2-2--4-4--4--4-4--4--4--4--|
E|--4-4-4-4-4-4-4-4--0-0-0-0-0-0-0-0-------------------2-2--2--2-2--2--2--2--|


E|-----------------------------------------------------------------------------|
B|-----------------------------------------------------------------------------|
G|--------------------------------------4-4-4-4-4-4-4-4------------------------|
D|--6-x-6-6-x-6-6-x--2-x-2-2-x-2-2-x-2--4-4-4-4-4-4-4-4--4-4--4--4-4--4--4--4--|
A|--6-x-6-6-x-6-6-x--2-x-2-2-x-2-2-x-2--2-2-2-2-2-2-2-2--4-4--4--4-4--4--4--4--|
E|--4-x-4-4-x-4-4-x--0-x-0-0-x-0-0-x-0-------------------2-2--2--2-2--2--2--2--|

 




E|-------------------------------------------------------------------------|
B|-------------------------------------------------------------------------|
G|--------------------9-9-9-9-9-9-9-9-9------------------------------------|
D|--6-6-6-6-6-6-6-6---9-9-9-9-9-9-9-9-9--9-9-9-9-9-9-9-9--4-4-4-4-4-4-4-4--|
A|--6-6-6-6-6-6-6-6---7-7-7-7-7-7-7-7-7--9-9-9-9-9-9-9-9--4-4-4-4-4-4-4-4--|
E|--4-4-4-4-4-4-4-4----------------------7-7-7-7-7-7-7-7--2-2-2-2-2-2-2-2--|



E|--------------------------|
B|--------------------------|
G|--4--2--1-----------------|
D|-----------4--2--1--------|
A|--------------------2--4--|
E|--------------------------|


E|-----------------|------------------|-----------------|--------------------|
B|-----------------|------------------|-----------------|--------------------|
G|-----------------|------------------|-----------------|--------------------|
D|-----------1-----|-----------1------|-----------1-----|-----2-2--1-1-------|
A|-----2--4-----2--|-----2--4------2--|--2--2--4-----2--|---------------4-4--|
E|--4--------------|--0---------------|-----------------|--0-----------------|


Sum 41
Hell Song (solo)
Tabbed by Andrew Chart

I've split this into little sections. They're not actually bars. Just a way of splitting it up to make it easier to understand.
It won't be perfect. I slowed it down to help me. Bits like the 4th 'bar' are pretty fast. The tabs of the rest of the song are
good but I wanted to get an accurate solo, so I hope this helps.

h = hammer on
p = pull off
b = bend 
r = release bend
u = prebend (bend the string before picking, or hold a previous bend and pick the note again)
~ = vibrato
. = hold bend
nh= natrual harmonic

e|------------------------|------------------------|-----------------------|-------------------------------------|
B|-9----------------------|-9----------------------|-----------------------|-------------------------------------|
G|-11b13-u13-u13-u13r11-8-|-11b13-u13-u13-u13r11-8-|-11-11-11-11-11-9-8----|-------------------------------------|
D|------------------------|------------------------|--------------------11-|-11-13h14--11-11h13--9-9h11--8-------|
A|------------------------|------------------------|-----------------------|-------------------------------------|
E|------------------------|------------------------|-----------------------|-------------------------------------|


e|--------------------------------|-----------------------------------------------------------------------------|
B|--------------------------------|-----------------------------------------------------------------------------|
G|-8--9--11--13--11--9---8-9---11-|-----------------------------------------------------------------------------|
D|-9--11-13--14--13--11--9-11--13-|-8h9p8h9p8h9--9h11p9h11p9h11--11h13p11h13p11h13--13h14p13h14p13h14-----------|
A|--------------------------------|-----------------------------------------------------------------------------|
E|--------------------------------|-----------------------------------------------------------------------------|

e|------------------------------------------|--------------------------------------------------------------------|
B|-9-------------11---------12--14-14p12----|-14b16-u16-u16-u16-u16r14p12------14b16-u16r14-12-------------------|
G|-11b13--13b15-u15--15b16-u16-----------13-|-----------------------------13~------------------------------------|
D|------------------------------------------|--------------------------------------------------------------------|
A|------------------------------------------|--------------------------------------------------------------------|
E|------------------------------------------|--------------------------------------------------------------------|

e|-------------14------------------------------14-------------|--------------------------------------------------|
B|-14-12-14b16.....u16r14-12~---12-14-12-14b16.....u16r14-12~-|-11-11h12--11h12----------------------------------|
G|------------------------------------------------------------|----------------11-13-11--------------------------|
D|------------------------------------------------------------|-------------------------11-13-11-9-11-9----------|
A|------------------------------------------------------------|--------------------------------------------------|
E|------------------------------------------------------------|--------------------------------------------------|

e|------------------------------------------------x--------------------------------------------------------------|
B|------------------------------------------------x--------------------------------------------------------------|
G|------------------------------------------------x---nh3--------------------------------------------------------|
D|-11-9-9~---------------------fdbk--------6-4-6--x--------------------------------------------------------------|
A|-----------------------------------------6-4-6--x--------------------------------------------------------------|


Important: The song above is NOT stored on the Chordie server. The original song is hosted at www.xguitar.com. Chordie works as a search engine and provides on-the-fly formatting. Chordie does not index songs against artists/composers will. To remove this song please click here.

This song is displayed as text-only. Transposing and tuning is only available for chordpro-songs.

Login - add to songbook

Rating click stars to rate

Layout
Accuracy

SHARE PAGE  




You need to log in to post comments