Guitar Tabs, Chords and Lyrics


Adding to the Noise    Switchfoot



Intro:
Pick up   Repeat this part
E|-----|------------------------------------|
B|-----|------------------------------------|
G|--5-7|--7--7------------------------------|
D|--5-7|--7--7--7--7--/9--9--9--7--9--------|
A|--3-5|--5--5--7--7--/9--9--9--7--9--------|
E|-----|--------5--5--/7--7--7--7--7--------|

Verse:

E|-----------------------------------------|
B|-----------------------------------------|
G|---7-7-7-7-7-----------------------------|
D|---7-7-7-7-7-7-7--5-5-5-5-5--------------|
A|---5-5-5-5-5-7-7--5-5-5-5-5--------------|
E|-------------5-5--3-3-3-3-3--------------|
           pm- verse

Chours:

E|-----|------------------------------------|
B|-----|------------------------------------|
G|--5-7|--7--7------------------------------|
D|--5-7|--7--7--7--7--/9--9--9--7--9--------|
A|--3-5|--5--5--7--7--/9--9--9--7--9--------|
E|-----|--------5--5--/7--7--7--7--7--------|

Bridge:

e|----------------------------|
B|----------------------------|
G|-7-----5-----7-----5---7----|
D|-7-----5-----7-----5---7----|
A|-5-----3-----5-----3---5----|

Then just repeat the chorus after with a wah pedal half way,


Important: The song above is NOT stored on the Chordie server. The original song is hosted at www.xguitar.com. Chordie works as a search engine and provides on-the-fly formatting. Chordie does not index songs against artists/composers will. To remove this song please click here.

This song is displayed as text-only. Transposing and tuning is only available for chordpro-songs.

Login - add to songbook

Rating click stars to rate

Layout
Accuracy

SHARE PAGE  




You need to log in to post comments