Guitar Tabs, Chords and Lyrics


Suite-Pee   System Of A Down



        WWW.METALTABS.COM

          URL: www.metaltabs.com
	EMAIL: webmaster@metaltabs.com

 ----------------------------------------------------------------------------------------------

	     SONG: Suite-Pee
	     BAND: System Of A Down
	    ALBUM: System Of A Down
   TRANSCRIBED BY: Brian (munky266@aol.com)
	     DATE: Unknown

 ----------------------------------------------------------------------------------------------

	TUNING: tune your guitar down one full step and then drop d (C,G,C,F,A,D)
     INTRO:

    D|--15-/-19-\-15---------------------------------------------15-/-19-\-15--|
    A|----------------15-/-19-\-15-----------------15-/-19-\-15----------------|
    F|-------------------------------14-/-18-\-14------------------------------|
    C|-------------------------------------------------------------------------|
    G|-------------------------------------------------------------------------|
    C|-------------------------------------------------------------------------|

    D|-------------------------------------------------------------------------|
    A|--15-/-19-\-15-----------------15-/-19-\-20------------------------------|
    F|----------------14-/-18-\-14---------------------------------------------|
    C|-------------------------------------------------------------------------|
    G|-------------------------------------------------------------------------|
    C|-------------------------------------------------------------------------|

     CHORUS:

    D|---------------------------------------------|
    A|---------------------------------------------|
    F|---------------------------------------------| 2x
    C|--0000-101--0000-101--0000-101--0000-1-0-12--|
    G|--0000-101--0000-101--0000-101--0000-1-0-12--|
    C|--0000-101--0000-101--0000-101--0000-1-0-12--|
                                               ^^ (that's a 12)
     VERSE:

    D|------------------10-11--|
    A|-------------------------|
    F|--777878--777878---------|
    C|-------------------------|
    G|-------------------------|
    C|-------------------------|

     INTERLUDE: (slower)

    D|-------------|-------|
    A|-------------|-------| 
    F|-------------|-------|
    C|--01-0-0-54--|--5-4--|
    G|--01-0-0-54--|-------|
    C|--01-0-0-54--|-------|



Important: The song above is NOT stored on the Chordie server. The original song is hosted at www.xguitar.com. Chordie works as a search engine and provides on-the-fly formatting. Chordie does not index songs against artists/composers will. To remove this song please click here.

This song is displayed as text-only. Transposing and tuning is only available for chordpro-songs.

Login - add to songbook

Rating click stars to rate

Layout
Accuracy

SHARE PAGE  




You need to log in to post comments