Chordie logo

War?   System Of A Down



        WWW.METALTABS.COM

          URL: www.metaltabs.com
	EMAIL: webmaster@metaltabs.com

 ----------------------------------------------------------------------------------------------

	     SONG: War?
	     BAND: System Of A Down
	    ALBUM: System Of A Down
   TRANSCRIBED BY: Kenny Luong (commie@ratm.org)
	     DATE: Unknown

 ----------------------------------------------------------------------------------------------

	TUNING: tune your guitar down one full step and then drop d (C,G,C,F,A,D)
     INTRO:

    D|-------------------|------------------|-----------------|
    A|-------------------|----------8--8----|-----------------|
    F|--8-7-8-7-x-x-x-x--|--8-7-8-7---7--7--|--x-x-x-x-x-x-x--|
    C|-------------------|------------------|-----------------|
    G|-------------------|------------------|-----------------|
    C|-------------------|------------------|-----------------|

     CHORUS/OUTRO:

    D|-----------------------------|-----------------------------|
    A|-----------------------------|-----------------------------|
    F|-----------------------------|--------1010---------1111----|
    C|--0--0-0-6-6-0--0-0-0-8-8-0--|--0--0-0-----0--0-0-0-----0--|
    G|--0--0-0-6-6-0--0-0-0-8-8-0--|---------8-8-0--0-0-0-9-9-0--|
    C|--0--0-0-6-6-0--0-0-0-8-8-0--|--0--0-0-----0--0-0-0-----0--|

     On the 2nd Chorus and Outro palm mute the open C5 chord

     VERSE:

    D|-----------|-----------|-------------------|-------------------|
    A|-----------|-----------|-------------------|-------------------|
    F|-----------|-----------|-------------------|-------------------|
    C|--1-0-1-0--|--0-5-0-5--|--1-0-1-0-x-x-x-x--|--x-x-x-x-x-x-x-x--|
    G|--1-0-1-0--|--0-5-0-5--|--1-0-1-0-x-x-x-x--|--x-x-x-x-x-x-x-x--|
    C|--1-0-1-0--|--0-5-0-5--|--1-0-1-0-x-x-x-x--|--x-x-x-x-x-x-x-x--|

     BRIDGE:

    D|-------------------|-----------|-----------|
    A|--x-6-----------6--|--x-6------|--------6--|  ** Palm Mute Throughout
    F|------8-7-x-7-8----|------8-7--|--x-7-8----|
    C|-------------------|-----------|-----------|
    G|-------------------|-----------|-----------|
    C|-------------------|-----------|-----------|


Important: The song above is NOT stored on the Chordie server. The original song is hosted at www.xguitar.com. Chordie works as a search engine and provides on-the-fly formatting. Chordie does not index songs against artists/composers will. To remove this song please click here.

This song is displayed as text-only. Transposing and tuning is only available for chordpro-songs.

Login - add to songbook

Rating click stars to rate

Layout
Accuracy

SHARE PAGE  

You need to log in to post comments