Chordie logo

Chop Suey!   System Of A Down



Artist: System of a Down
Album: Toxicity (2001)
Track: 6
Song: Chop Suey

Tuning: CGCFAD (Drop D & Full Step Down)

Words by Serj Tankian, Daron Malakian
Music by Daron Malakian

Transcribed by Brian Stilson
 Intro

          Gtr I
|-------|-------------------------|-----------------------------|
|-------|-0-------0---0-0-0-0-0-0-|-0--0------0-0-0-0-0-0-0-0-0-|
|-------|-5-------5---5-5-5-5-5-5-|-5s=7------7-7-7-7-7-7-7-7-7-|
|-------|-7-7-7-7-7-7-7-7-7-7-7-7-|-7s=9--9-9-9-9-9-9-9-9-9-9-9-|
|-------|-0-0-0-0-0-0-0-0-0-0-0-0-|-0-(0)-0-0-0-0-0-0-0-0-0-0-0-|
|-------|-------------------------|-----------------------------|
|---------------------------|----------------------------|
|-0-0-0-0-0-0-0-0-0-0-0-0-0-|-0-0-0-0-0-0-0-0-0-0-0-0-0--|
|-4-4-4-4-4-4-4-4-4-4-4-4-4-|-2-2-2-2-2-2-2-2-2-2-2-2-2--|
|-5-5-5-5-5-5-5-5-5-5-5-5-5-|-3-3-3-3-3-3-3-3-3-3-3-3-3--|
|-0-0-0-0-0-0-0-0-0-0-0-0-0-|-0-0-0-0-0-0-0-0-0-0-0-0-0--|
|---------------------------|----------------------------|
|---------------------------|------------------------------|
|-0-0-0-0-0-0-0-0-0-0-0-0-0-|-0--0--0-0-0-0-0-0-0-0-0-0-0--|
|-5-5-5-5-5-5-5-5-5-5-5-5-5-|-5s=7--7-7-7-7-7-7-7-7-7-7-7--|
|-7-7-7-7-7-7-7-7-7-7-7-7-7-|-7s=9--9-9-9-9-9-9-9-9-9-9-9--|
|-0-0-0-0-0-0-0-0-0-0-0-0-0-|-0-(0)-0-0-0-0-0-0-0-0-0-0-0--|
|---------------------------|------------------------------|
|
| Gtr II
| PM--------------------------------------------------|
|---------------------------|------------------------------|
|---------------------------|------------------------------|
|-5---------5---------5-----|-7-----------7---------7------|
|-----7---------7-------7---|-------9---------9-------9----|
|---------------------------|------------------------------|
|---------------------------|------------------------------|
|---------------------------|-------------------------------------------------|
|-0-0-0-0-0-0-0-0-0-0-0-0-0-|--0-----0--0--0--0--0-----0--0--0--0--0-----0--0-|
|-4-4-4-4-4-4-4-4-4-4-4-4-4-|--2-----2--2--2--2--2-----2--2--2--2--2-----2--2-|
|-5-5-5-5-5-5-5-5-5-5-5-5-5-|--3-----3--3--3--3--3-----3--3--3--3--3-----3--3-|
|-0-0-0-0-0-0-0-0-0-0-0-0-0-|--0-----0--0--0--0--0-----0--0--0--0--0-----0--0-|
|---------------------------|-------------------------------------------------|
|
| PM--------------------------------------------------------------------|
|---------------------------|-------------------------------------------------|
|---------------------------|-------------------------------------------------|
|-4---------4---------4-----|--2-----------------2-----------------2----------|
|-----5---------5-------5---|-----------3-----------------3--------------3----|
|---------------------------|-------------------------------------------------|
|---------------------------|-------------------------------------------------|
|
|                             Gtr III
|                              <
|---------------------------|--8--8--8--8--8--8--8--8--8--8--8--8--8--8--8--8-|
|---------------------------|-10-10-10-10-10-10-10-10-10-10-10-10-10-10-10-10-|
|---------------------------|-------------------------------------------------|
|---------------------------|-------------------------------------------------|
|---------------------------|-------------------------------------------------|
|---------------------------|-------------------------------------------------|
|-------------------------------------------------|
|--0-----0--0--0--0--0-----0--0--0--0--0-----0--0-|
|--5-----5--5--5--5--5-----5--5--5--5--5-----5--5-|
|--7-----7--7--7--7--7-----7--7--7--7--7-----7--7-|
|--0-----0--0--0--0--0-----0--0--0--0--0-----0--0-|
|-------------------------------------------------|
|
|  PM----------------------------------------------
|-------------------------------------------------|
|-------------------------------------------------|
|-----------5-----------------5--------------5----|
|--7-----------------7-----------------7----------|
|-------------------------------------------------|
|-------------------------------------------------|
|
|--8--8--8--8--8--8--8--8--8--8--8--8--8--8--8--8S|
|-10-10-10-10-10-10-10-10-10-10-10-10-10-10-10-10S|
|-------------------------------------------------|
|-------------------------------------------------|
|-------------------------------------------------|
|-------------------------------------------------|
|---------------------------------------------------|
|--0--0------0--0--0--0-----0--0--0--0--0-----0--0--|
|--5s=7------7--7--7--7-----7--7--7--7--7-----7--7--|
|--7s=9------9--9--9--9-----9--9--9--9--9-----9--9--|
|--0-(0)-----0--0--0--0-----0--0--0--0--0-----0--0--|
|---------------------------------------------------|
|
|--------------------------------------------|
|---------------------------------------------------|
|---------------------------------------------------|
|------------7-----------------7--------------7-----|
|--9------------------9-----------------9-----------|
|---------------------------------------------------|
|---------------------------------------------------|
|
|-10-10--10-10-10-10-10-10-10-10-10-10-10-10-10-10S=|
|-12-12--12-12-12-12-12-12-12-12-12-12-12-12-12-12S=|
|---------------------------------------------------|
|---------------------------------------------------|
|---------------------------------------------------|
|---------------------------------------------------|
|---------------------------------|
|-0---0-0-0-0-0---0-0-0-0-0---0-0-|
|-4---4-4-4-4-4---4-4-4-4-4---4-4-|
|-5---5-5-5-5-5---5-5-5-5-5---5-5-|
|-0---0-0-0-0-0---0-0-0-0-0---0-0-|
|---------------------------------|
|
| PM-------------------------------
|---------------------------------|
|---------------------------------|
|-------4-----------4---------4---|
|-5-----------5-----------5-------|
|---------------------------------|
|---------------------------------|
|
|-7-7-7-7-7-7-7-7-7-7-7-7-7-7-7-7S|
|-8-8-8-8-8-8-8-8-8-8-8-8-8-8-8-8S|
|---------------------------------|
|---------------------------------|
|---------------------------------|
|---------------------------------|
|-------------------------------------------------|
|--0-----0--0--0--0--0-----0--0--0--0--0-----0--0-|
|--2-----2--2--2--2--2-----2--2--2--2--2-----2--2-|
|--3-----3--3--3--3--3-----3--3--3--3--3-----3--3-|
|--0-----0--0--0--0--0-----0--0--0--0--0-----0--0-|
|-------------------------------------------------|
|
|-------------------------------------------|
|-------------------------------------------------|
|-------------------------------------------------|
|-----------2-----------------2--------------2----|
|--3-----------------3-----------------3----------|
|-------------------------------------------------|
|-------------------------------------------------|
|
|-12-12-12-12-12-12-12-12-12-12-12-12-12-12-12-12-|
|-13-13-13-13-13-13-13-13-13-13-13-13-13-13-13-13-|
|-------------------------------------------------|
|-------------------------------------------------|
|-------------------------------------------------|
|-------------------------------------------------|
|-------------------------------------------------|
|--0-----0--0--0--0--0-----0--0--0--0--0-----0--0-|
|--5-----5--5--5--5--5-----5--5--5--5--5-----5--5-|
|--7-----7--7--7--7--7-----7--7--7--7--7-----7--7-|
|--0-----0--0--0--0--0-----0--0--0--0--0-----0--0-|
|-------------------------------------------------|
|
|  PM----------------------------------------------
|-------------------------------------------------|
|-------------------------------------------------|
|-----------5-----------------5--------------5----|
|--7-----------------7-----------------7----------|
|-------------------------------------------------|
|-------------------------------------------------|
|
|-12-12-12-12-12-12-12-12-12-12-12-12-12-12-12-12S|
|-13-13-13-13-13-13-13-13-13-13-13-13-13-13-13-13S|
|-------------------------------------------------|
|-------------------------------------------------|
|-------------------------------------------------|
|-------------------------------------------------|
|---------------------------------------------------|
|--0--0------0--0--0--0-----0--0--0--0--0-----0--0--|
|--5s=7------7--7--7--7-----7--7--7--7--7-----7--7--|
|--7s=9------9--9--9--9-----9--9--9--9--9-----9--9--|
|--0-(0)-----0--0--0--0-----0--0--0--0--0-----0--0--|
|---------------------------------------------------|
|
|--------------------------------------------|
|---------------------------------------------------|
|---------------------------------------------------|
|------------7-----------------7--------------7-----|
|--9------------------9-----------------9-----------|
|---------------------------------------------------|
|---------------------------------------------------|
|
|-13-13--13-13-13-13-13-13-13-13-13-13-13-13-13-13S=|
|-15-15--15-15-15-15-15-15-15-15-15-15-15-15-15-15S=|
|---------------------------------------------------|
|---------------------------------------------------|
|---------------------------------------------------|
|---------------------------------------------------|
|-------------------------------------------------|
|--0-----0--0--0--0--0-----0--0--0--0--0-----0--0-|
|--4-----4--4--4--4--4-----4--4--4--4--4-----4--4-|
|--5-----5--5--5--5--5-----5--5--5--5--5-----5--5-|
|--0-----0--0--0--0--0-----0--0--0--0--0-----0--0-|
|-------------------------------------------------|
|
|  PM---------------------------------------|
|-------------------------------------------------|
|-------------------------------------------------|
|-----------4-----------------4--------------4----|
|--5-----------------5-----------------5----------|
|-------------------------------------------------|
|-------------------------------------------------|
|
|-10-10-10-10-10-10-10-10-10-10-10-10-10-10-10-10S|
|-12-12-12-12-12-12-12-12-12-12-12-12-12-12-12-12S|
|-------------------------------------------------|
|-------------------------------------------------|
|-------------------------------------------------|
|-------------------------------------------------|
|-------------------------------------------------||
|--0--0--0--0--0--0--0--0--0--0--0--0--0--0--0--0-||
|--2--2--2--2--2--2--2--2--2--2--2--2--2--2--2--2-||
|--3--3--3--3--3--3--3--3--3--3--3--3--3--3--3--3-||
|--0--0--0--0--0--0--0--0--0--0--0--0--0--0--0--0-||
|-------------------------------------------------||
|
|  <
|-------------------------------------------------||
|-------------------------------------------------||
|--2-----2-----2-----2-----2-----2-----2-----2----||
|--3-----3-----3-----3-----3-----3-----3-----3----||
|-------------------------------------------------||
|-------------------------------------------------||
|
|-13-13-13-13-13-13-13-13-13-13-13-13-13-13-13-13-||
|-15-15-15-15-15-15-15-15-15-15-15-15-15-15-15-15-||
|-------------------------------------------------||
|-------------------------------------------------||
|-------------------------------------------------||
|-------------------------------------------------||
    Gtr IV
    PM-------------------------------
||----------------------------------|
||o---------------------------------|
||----------------------------------|
||----------------------------------|
||o-8p7-8p7-8p7-8p7-7p6-7p6-7p6-7p6-|
||--8p7-8p7-8p7-8p7-7p6-7p6-7p6-7p6-|
 ---------------------------------------|
|-------------------------------------------||
|------------------------------------------o||
|-------------------------------------------||
|-------------------------------------------||
|-10p9-10p9-10p9-10p9-12p11-12p11-12p11-12-o||
|-10p9-10p9-10p9-10p9-12p11-12p11-12p11-12--||
||----------------------------------|
||o---------------------------------|
||----------------------------------|
||----------------------------------|
||o---------------------------------|
||--7-7-7-7-7-7-7-7-6-6-6-6-6-6-6-6-|
|-------------------------------------------||
|------------------------------------------o||
|-------------------------------------------||
|-------------------------------------------||
|------------------------------------------o||
|-9-9-9-9-9-9-9-9-12-12-12-12-12-12-12-12---||
 1st Verse
  PM|    PM-------------------------------------|
|------------------------|-------------------------|
|------------------------|-------------------------|
|------------------------|-------------------------|
|------------------------|-------------------------|
|-8-7----7-7-7-7-7-7-7-7-|-7-6----6-6-6-6-6-6-6-6--|
|-8-7----7-7-7-7-7-7-7-7-|-7-6----6-6-6-6-6-6-6-6--|
    PM|    PM-------------------------------------|
                                                     3x
||-------------------------|-------------------------||
||o------------------------|------------------------o||
||-------------------------|-------------------------||
||-------------------------|-------------------------||
||o-6-7----7-7-7-7-7-7-7-7-|-7-6----6-6-6-6-6-6-6-6-o||
||--6-7----7-7-7-7-7-7-7-7-|-7-6----6-6-6-6-6-6-6-6--||
 Chorus
  Gtr V
|-------------------------------------------------|
|-------------------------------------------------|
|--5-----------------------5-----------------5----|
|--------7-----------7-----------7----------------|
|--------------0-----------------------0----------|
|-------------------------------------------------|
|
| Gtr II
|  PM----------------------------------------------
|-------------------------------------------------|
|-------------------------------------------------|
|--5-----------------------5----------------------|
|--------------------------------7-----------7----|
|--------------0-----------------------0----------|
|-------------------------------------------------|
|
| Gtr III
|--8--8--8--8--8--8--8--8--8--8--8--8--8--8--8--8S|
|-10-10-10-10-10-10-10-10-10-10-10-10-10-10-10-10S|
|-------------------------------------------------|
|-------------------------------------------------|
|-------------------------------------------------|
|-------------------------------------------------|
|--------------------------------------------------|
|--------------------------------------------------|
|--7-----------------------7-----------------7-----|
|--------9-----------9-----------9-----------------|
|--------------0-----------------------0-----------|
|--------------------------------------------------|
|
|-------------------------------------------|
|--------------------------------------------------|
|--------------------------------------------------|
|--7-----------------------7-----------------------|
|--------------------------------9-----------9-----|
|--------------0-----------------------0-----------|
|--------------------------------------------------|
|
|-10-10-10-10-10-10-10-10-10-10-10-10-10-10-10-10S=|
|-12-12-12-12-12-12-12-12-12-12-12-12-12-12-12-12S=|
|--------------------------------------------------|
|--------------------------------------------------|
|--------------------------------------------------|
|--------------------------------------------------|
|---------------------------------|
|---------------------------------|
|-4---------------4-----------4---|
|-----5-------5-------5-----------|
|---------0---------------0-------|
|---------------------------------|
|
| PM------|           PM-----------
|---------------------------------|
|---------------------------------|
|-4---------------4---------------|
|---------------------5-------5---|
|---------0---------------0-------|
|---------------------------------|
|
|-7-7-7-7-7-7-7-7-7-7-7-7-7-7-7-7S|
|-8-8-8-8-8-8-8-8-8-8-8-8-8-8-8-8S|
|---------------------------------|
|---------------------------------|
|---------------------------------|
|---------------------------------|
|--------------------------------------------------|
|--------------------------------------------------|
|--2-----------------------2-----------------2-----|
|--------3-----------3-----------3-----------------|
|--------------0-----------------------0-----------|
|--------------------------------------------------|
|
|-------------------------------------------|
|--------------------------------------------------|
|--------------------------------------------------|
|--2-----------------------2-----------------------|
|--------------------------------3-----------3-----|
|--------------0-----------------------0-----------|
|--------------------------------------------------|
|
|-12-12-12-12-12-12-12-12-12-12-12-12-12-12-12-12S=|
|-13-13-13-13-13-13-13-13-13-13-13-13-13-13-13-13S=|
|--------------------------------------------------|
|--------------------------------------------------|
|--------------------------------------------------|
|--------------------------------------------------|
|-------------------------------------------------|
|-------------------------------------------------|
|--5-----------------------5-----------------5----|
|--------7-----------7-----------7----------------|
|--------------0-----------------------0----------|
|-------------------------------------------------|
|
|  PM----------------------------------------------
|-------------------------------------------------|
|-------------------------------------------------|
|--5-----------------------5----------------------|
|--------------------------------7-----------7----|
|--------------0-----------------------0----------|
|-------------------------------------------------|
|
|--8--8--8--8--8--8--8--8--8--8--8--8--8--8--8--8S|
|-10-10-10-10-10-10-10-10-10-10-10-10-10-10-10-10S|
|-------------------------------------------------|
|-------------------------------------------------|
|-------------------------------------------------|
|-------------------------------------------------|
|--------------------------------------------------|
|--------------------------------------------------|
|--7-----------------------7-----------------7-----|
|--------9-----------9-----------9-----------------|
|--------------0-----------------------0-----------|
|--------------------------------------------------|
|
|-------------------------------------------|
|--------------------------------------------------|
|--------------------------------------------------|
|--7-----------------------7-----------------------|
|--------------------------------9-----------9-----|
|--------------0-----------------------0-----------|
|--------------------------------------------------|
|
|-10-10-10-10-10-10-10-10-10-10-10-10-10-10-10-10S=|
|-12-12-12-12-12-12-12-12-12-12-12-12-12-12-12-12S=|
|--------------------------------------------------|
|--------------------------------------------------|
|--------------------------------------------------|
|--------------------------------------------------|
|---------------------------------|
|---------------------------------|
|-4---------------4-----------4---|
|-----5-------5-------5-----------|
|---------0---------------0-------|
|---------------------------------|
|
| PM------|
|---------------------------------|
|---------------------------------|
|-4---------------4---------------|
|---------------------5-------5---|
|---------0---------------0-------|
|---------------------------------|
|
|-7-7-7-7-7-7-7-7-7-7-7-7-7-7-7-7S|
|-8-8-8-8-8-8-8-8-8-8-8-8-8-8-8-8S|
|---------------------------------|
|---------------------------------|
|---------------------------------|
|---------------------------------|
|-------------------------------------------------||
|-------------------------------------------------||
|--2-----------------------2-----------------2----||
|--------3-----------3-----------3----------------||
|--------------0-----------------------0----------||
|-------------------------------------------------||
|
|-------------------------------------------------||
|-------------------------------------------------||
|--2-----------------------2----------------------||
|--------------------------------3-----------3----||
|--------------0-----------------------0----------||
|-------------------------------------------------||

|
|-12-12-12-12-12-12-12-12-12-12-12-12-12-12-12-12-||
|-13-13-13-13-13-13-13-13-13-13-13-13-13-13-13-13-||
|-------------------------------------------------||
|-------------------------------------------------||
|-------------------------------------------------||
|-------------------------------------------------||
    Gtr IV
    PM-------------------------------
||----------------------------------|
||o---------------------------------|
||----------------------------------|
||----------------------------------|
||o-8p7-8p7-8p7-8p7-7p6-7p6-7p6-7p6-|
||--8p7-8p7-8p7-8p7-7p6-7p6-7p6-7p6-|
 ---------------------------------------|
|-------------------------------------------||
|------------------------------------------o||
|-------------------------------------------||
|-------------------------------------------||
|-10p9-10p9-10p9-10p9-12p11-12p11-12p11-12-o||
|-10p9-10p9-10p9-10p9-12p11-12p11-12p11-12--||
                                    2nd Verse
                                     PM|    PM------------|
|---------------------------------||------------------------|
|---------------------------------||------------------------|
|---------------------------------||------------------------|
|---------------------------------||------------------------|
|-8p7-8p7-8p7-8p7-8p7-8p7-8p7-8p7-||-8-7----7-7-7-7-7-7-7-7-|
|-8p7-8p7-8p7-8p7-8p7-8p7-8p7-8p7-||-8-7----7-7-7-7-7-7-7-7-|
  PM---------------------------|    PM------------|
|------------------------||--------------------------|
|------------------------||o-------------------------|
|------------------------||--------------------------|
|------------------------||--------------------------|
|-7-6----6-6-6-6-6-6-6-6-||o-6-7----7-7-7-7-7-7-7-7--|
|-7-6----6-6-6-6-6-6-6-6-||--6-7----7-7-7-7-7-7-7-7--|
  PM-------------------|
                          3x
|-------------------------||-|
|------------------------o||-|
|-------------------------||-|
|-------------------------||-|
|-7-6----6-6-6-6-6-6-6-6-o||-|
|-7-6----6-6-6-6-6-6-6-6--||-|
|
|                         3x
|-------------------------||-|
|------------------------o||-|
|-------------------------||-|
|-------------------------||-|
|------------------------o||-|
|-------------------------||-|
|
|                         3x
|-------------------------||-|
|------------------------o||-|
|-------------------------||-|
|-------------------------||-|
|------------------------o||-|
|-------------------------||-|
   Chorus
    Gtr V
||---------------------------------------------------|
||o--------------------------------------------------|
||---5-----------------------5-----------------5-----|
||---------7-----------7-----------7-----------------|
||o--------------0-----------------------0-----------|
||---------------------------------------------------|
|
|   Gtr II
|    PM---------------------------------------|
||---------------------------------------------------|
||o--------------------------------------------------|
||---5-----------------------5-----------------------|
||---------------------------------7-----------7-----|
||o--------------0-----------------------0-----------|
||---------------------------------------------------|
|
|   Gtr III
||---8--8--8--8--8--8--8--8--8--8--8--8--8--8--8--8--|
||o-10-10-10-10-10-10-10-10-10-10-10-10-10-10-10-10--|
||---------------------------------------------------|
||---------------------------------------------------|
||o--------------------------------------------------|
||---------------------------------------------------|
|-------------------------------------------------|
|-------------------------------------------------|
|--7-----------------------7-----------------7----|
|--------9-----------9-----------9----------------|
|--------------0-----------------------0----------|
|-------------------------------------------------|
|
|  PM----------------------------------------------
|-------------------------------------------------|
|-------------------------------------------------|
|--7-----------------------7----------------------|
|--------------------------------9-----------9----|
|--------------0-----------------------0----------|
|-------------------------------------------------|
|
|-10-10-10-10-10-10-10-10-10-10-10-10-10-10-10-10S|
|-12-12-12-12-12-12-12-12-12-12-12-12-12-12-12-12S|
|-------------------------------------------------|
|-------------------------------------------------|
|-------------------------------------------------|
|-------------------------------------------------|
|----------------------------------|
|----------------------------------|
|-4---------------4-----------4----|
|-----5-------5-------5------------|
|---------0---------------0--------|
|----------------------------------|
|
|-----------------------------|
|----------------------------------|
|----------------------------------|
|-4---------------4----------------|
|---------------------5-------5----|
|---------0---------------0--------|
|----------------------------------|
|
|-7-7-7-7-7-7-7-7-7-7-7-7-7-7-7-7S=|
|-8-8-8-8-8-8-8-8-8-8-8-8-8-8-8-8S=|
|----------------------------------|
|----------------------------------|
|----------------------------------|
|----------------------------------|
  1.
|--------------------------------------------------||
|-------------------------------------------------o||
|--2-----------------------2-----------------2-----||
|--------3-----------3-----------3-----------------||
|--------------0-----------------------0----------o||
|--------------------------------------------------||
|
|  PM---------------------------------------|
|--------------------------------------------------||
|-------------------------------------------------o||
|--2-----------------------2-----------------------||
|--------------------------------3-----------3-----||
|--------------0-----------------------0----------o||
|--------------------------------------------------||
|
|-12-12-12-12-12-12-12-12-12-12-12-12-12-12-12-12--||
|-13-13-13-13-13-13-13-13-13-13-13-13-13-13-13-13-o||
|--------------------------------------------------||
|--------------------------------------------------||
|-------------------------------------------------o||
|--------------------------------------------------||
  2.
|---------------------------------------------------|
|---------------------------------------------------|
|---2-----------------------2-----------------2-----|
|---------3-----------3-----------3-----------------|
|---------------0-----------------------0-----------|
|---------------------------------------------------|
|
|---------------------------------------------------|
|---------------------------------------------------|
|---2-----------------------2-----------------------|
|---------------------------------3-----------3-----|
|---------------0-----------------------0-----------|
|---------------------------------------------------|
|
|-/12-12-12-12-12-12-12-12-12-12-12-12-12-12-12-12S=|
|-/13-13-13-13-13-13-13-13-13-13-13-13-13-13-13-13S=|
|---------------------------------------------------|
|---------------------------------------------------|
|---------------------------------------------------|
|---------------------------------------------------|
|-------------------------------------------------|
|-------------------------------------------------|
|--5-----------------------5-----------5-----7----|
|--------7-----------7-----------7----------------|
|--------------0----------------------------------|
|-------------------------------------------------|
|
|-------------------------------------------------|
|-------------------------------------------------|
|--5-----------------------5----------------------|
|--------------------------------7-----------7----|
|--------------0-----------------------0----------|
|-------------------------------------------------|
|
|--8--8--8--8--8--8--8--8--8--8--8--8--8--8--8--8S|
|-10-10-10-10-10-10-10-10-10-10-10-10-10-10-10-10S|
|-------------------------------------------------|
|-------------------------------------------------|
|-------------------------------------------------|
|-------------------------------------------------|
|--------------------------------------------------|
|--------------------------------------------------|
|--7-----------------------7-----------7-----9-----|
|--------9-----------9-----------9-----------------|
|--------------0-----------------------------------|
|--------------------------------------------------|
|
|--------------------------------------------------|
|--------------------------------------------------|
|--7-----------------------7-----------------------|
|--------------------------------9-----------9-----|
|--------------0-----------------------0-----------|
|--------------------------------------------------|
|
|-10-10-10-10-10-10-10-10-10-10-10-10-10-10-10-10S=|
|-12-12-12-12-12-12-12-12-12-12-12-12-12-12-12-12S=|
|--------------------------------------------------|
|--------------------------------------------------|
|--------------------------------------------------|
|--------------------------------------------------|
|---------------------------------|
|---------------------------------|
|-4---------------4-------7---9---|
|-----5-------5-------5-----------|
|---------0-----------------------|
|---------------------------------|
|
|---------------------------------|
|---------------------------------|
|-4---------------4---------------|
|---------------------5-------5---|
|---------0---------------0-------|
|---------------------------------|
|
|-7-7-7-7-7-7-7-7-7-7-7-7-7-7-7-7S|
|-8-8-8-8-8-8-8-8-8-8-8-8-8-8-8-8S|
|---------------------------------|
|---------------------------------|
|---------------------------------|
|---------------------------------|
|--------------------------------------------------|
|--------------------------------------------------|
|-10--------9--------7-----5--------4--------2-----|
|--------------------------------------------------|
|--------------------------------------------------|
|--------------------------------------------------|
|
|--------------------------------------------------|
|--------------------------------------------------|
|--2-----------------------2-----------------------|
|--------------------------------3-----------3-----|
|--------------0-----------------------0-----------|
|--------------------------------------------------|
|
|-12-12-12-12-12-12-12-12-12-12-12-12-12-12-12-12S=|
|-13-13-13-13-13-13-13-13-13-13-13-13-13-13-13-13S=|
|--------------------------------------------------|
|--------------------------------------------------|
|--------------------------------------------------|
|--------------------------------------------------|
|-------------------------------------------------|
|-------------------------------------------------|
|--5-----------------------5-----------------5----|
|--------7-----------7-----------7----------------|
|--------------0-----------------------0----------|
|-------------------------------------------------|
|
|-------------------------------------------------|
|-------------------------------------------------|
|--5-----------------------5----------------------|
|--------------------------------7-----------7----|
|--------------0-----------------------0----------|
|-------------------------------------------------|
|
|--8--8--8--8--8--8--8--8--8--8--8--8--8--8--8--8S|
|-10-10-10-10-10-10-10-10-10-10-10-10-10-10-10-10S|
|-------------------------------------------------|
|-------------------------------------------------|
|-------------------------------------------------|
|-------------------------------------------------|
|--------------------------------------------------|
|--------------------------------------------------|
|--7-----------------------7-----------------7-----|
|--------9-----------9-----------9-----------------|
|--------------0-----------------------0-----------|
|--------------------------------------------------|
|
|--------------------------------------------------|
|--------------------------------------------------|
|--7-----------------------7-----------------------|
|--------------------------------9-----------9-----|
|--------------0-----------------------0-----------|
|--------------------------------------------------|
|
|-10-10-10-10-10-10-10-10-10-10-10-10-10-10-10-10S=|
|-12-12-12-12-12-12-12-12-12-12-12-12-12-12-12-12S=|
|--------------------------------------------------|
|--------------------------------------------------|
|--------------------------------------------------|
|--------------------------------------------------|
|---------------------------------|----------|--------||
|---------------------------------|----------|--------||
|-4---------------4-----------4---|----------|--------||
|-----5-------5-------5-----------|----------|--------||
|---------0---------------0-------|----------|--------||
|---------------------------------|----------|--------||
|
|---------------------------------|----------|--------||
|---------------------------------|----------|--------||
|-4---------------4---------------|-2--------|-(2)----||
|---------------------5-------5---|-3--------|-(3)----||
|---------0---------------0-------|-0--------|-(0)----||
|---------------------------------|----------|--------||
|
|-7-7-7-7-7-7-7-7-7-7-7-7-7-7-7-7-|----------|--------||
|-8-8-8-8-8-8-8-8-8-8-8-8-8-8-8-8-|----------|--------||
|---------------------------------|----------|--------||
|---------------------------------|----------|--------||
|---------------------------------|----------|--------||
|---------------------------------|----------|--------||
    Gtr IV
||----------------------------------|
||o---------------------------------|
||----------------------------------|
||----------------------------------|
||o-8p7-8p7-8p7-8p7-7p6-7p6-7p6-7p6-|
||--8p7-8p7-8p7-8p7-7p6-7p6-7p6-7p6-|
|-------------------------------------------||
|------------------------------------------o||
|-------------------------------------------||
|-------------------------------------------||
|-10p9-10p9-10p9-10p9-12p11-12p11-12p11-12-o||
|-10p9-10p9-10p9-10p9-12p11-12p11-12p11-12--||
   Bridge
    PM-------------------------------
||----------------------------------|
||o---------------------------------|
||----------------------------------|
||----------------------------------|
||o-8p7-8p7-8p7-8p7-7p6-7p6-7p6-7p6-|
||--8p7-8p7-8p7-8p7-7p6-7p6-7p6-7p6-|
 ---------------------------------------|
|-------------------------------------------||
|------------------------------------------o||
|-------------------------------------------||
|-------------------------------------------||
|-10p9-10p9-10p9-10p9-12p11-12p11-12p11-12-o||
|-10p9-10p9-10p9-10p9-12p11-12p11-12p11-12--||
||----------------------------------|
||o---------------------------------|
||----------------------------------|
||----------------------------------|
||o---------------------------------|
||--7-7-7-7-7-7-7-7-6-6-6-6-6-6-6-6-|
|-------------------------------------------||
|------------------------------------------o||
|-------------------------------------------||
|-------------------------------------------||
|------------------------------------------o||
|-9-9-9-9-9-9-9-9-12-12-12-12-12-12-12-12---||
   Outro
                                              5x
||-----------|-----------|-----------|--------||
||o----------|-----------|-----------|-------o||
||-----------|-10--------|-----------|-10-----||
||--7--------|-10--------|-10--------|-10-----||
||o-7--------|--8--------|-10--------|--8----o||
||--7--------|-----------|-10--------|--------||
                                      PM  PM PM---|
|----------|-----------|-----------|------------------|
|----------|-----------|-----------|------------------|
|----------|-10--------|-----------|-10--10--9-9--9---|
|-7--------|-10--------|-10--------|-10--10--9-9--9---|
|-7--------|--8--------|-10--------|--8---8--7-7--7---|
|-7--------|-----------|-10--------|------------------|
  >
|----------|------------|------------|--------*|
|----------|------------|------------|--------*|
|----------|------------|------------|--------*|
|-7--------|-(7)--------|-(7)--------|-(7)----*|
|-7--------|-(7)--------|-(7)--------|-(7)----*|
|-7--------|-(7)--------|-(7)--------|-(7)----*|


Important: The song above is NOT stored on the Chordie server. The original song is hosted at www.xguitar.com. Chordie works as a search engine and provides on-the-fly formatting. Chordie does not index songs against artists/composers will. To remove this song please click here.

This song is displayed as text-only. Transposing and tuning is only available for chordpro-songs.

Login - add to songbook

Rating click stars to rate

Layout
Accuracy

SHARE PAGE  



You need to log in to post comments