Guitar Tabs, Chords and Lyrics


The Blue Channel    Taking Back Sunday



Intro:

e|----0--1-0-----------------------------0---------|
b|---3--3--------3-5--3--------3-1-1-------2~------|
g|--2--2--------5----5-------3----3-----2------2~--|
d|-0-----------5------------3-3--------2-----------|
a|------------3-----3------1----------0------------|
e|-------------------------------------------------|

e|----0-1--0--------------------0-----------|
b|---3----3-----3-5--3----1--3---1-----3-2--|
g|--2----------5----5-------3-3-------2-----|
d|-0-----0----5----5----3------------2------|
a|-----------3---------1------------0-------|
e|------------------------------------------|

Chorus Guitar 1: (And Im not so sure, If im sure of..)

E|------|
B|---7--|
G|---7--|
D|---7--|
A|---5--|
E|------|
   Pick that chord randomly (mostly G and B strings)


Chorus Guitar 2:

E|--------------------------------------------|
B|--------------------------------------------|
G|---7-7-7-7-7-5-5-5-5-5-3-3-3-3-3-2-2-2-2-2--|
D|---7-7-7-7-7-5-5-5-5-5-3-3-3-3-3-2-2-2-2-2--| x2
A|---5-5-5-5-5-3-3-3-3-3-1-1-1-1-1-0-0-0-0-0--|
E|--------------------------------------------|

Verse Guitar 1: (Just hit the lights..)

SAME AS Chorus

Verse Guitar 2:

E|-----------------------------|
B|-----------------------------|
G|---7-7/9-9/5-5-5-5-----------|
D|---x-x/x-x/x-x-x-x-7-7-7-7-7-| x4
A|---5-5/7-7/3-3-3-3-7-7-7-7-7-|
E|-------------------5-5-5-5-5-|
On the 2nd and 4th time, only palm mute some of that chord.

Bridge Guitar 1:

E|--------------------------|
B|-----------------7-7-7-7--|
G|-------7---7---7----------| (until the end)
D|-----7---7---7------------|
A|---5----------------------|
E|--------------------------|

Bridge Guitar 2:

E|------------------------------------------|
B|------------------------------------------|
G|---7-7-7-7-7-x-x-7-7-7-7-7-x-x-7-7-7-7-7--|
D|---7-7-7-7-7-x-x-7-7-7-7-7-x-x-7-7-7-7-7--|
A|---5-5-5-5-5-x-x-5-5-5-5-5-x-x-5-5-5-5-5--|
E|------------------------------------------|

E|------------------------------------------|
B|------------------------------------------|
G|---5-5-5-5-5-x-x-5-5-5-5-5-x-x-5-5-5-5-5--|
D|---5-5-5-5-5-x-x-5-5-5-5-5-x-x-5-5-5-5-5--|
A|---3-3-3-3-3-x-x-3-3-3-3-3-x-x-3-3-3-3-3--|
E|------------------------------------------|

E|------------------------------------------|
B|---3-3-3-3-3-x-x-3-3-3-3-3-x-x-3-3-3-3-3--|
G|---3-3-3-3-3-x-x-3-3-3-3-3-x-x-3-3-3-3-3--|
D|---3-3-3-3-3-x-x-3-3-3-3-3-x-x-3-3-3-3-3--|
A|---1-1-1-1-1-x-x-1-1-1-1-1-x-x-1-1-1-1-1--|
E|------------------------------------------|

E|------------------------------------------|
B|---2-2-2-2-2-x-x-2-2-2-2-2-x-x-2-2-2-2-2--|
G|---2-2-2-2-2-x-x-2-2-2-2-2-x-x-2-2-2-2-2--|
D|---2-2-2-2-2-x-x-2-2-2-2-2-x-x-2-2-2-2-2--|
A|---0-0-0-0-0-x-x-0-0-0-0-0-x-x-0-0-0-0-0--|
E|------------------------------------------|

Bridge for Guitar 2 is x2.
Then play it like the chorus x2 except a bit slower.

Outro Guitar 1:

SAME AS BRIDGE

Outro Guitar 2:

E|----------------------------|
B|---7-7-7-7-7-----7-7-7-7-7--|
G|---7-7-7-7-7-----7-7-7-7-7--|
D|---7-7-7-7-7-----7-7-7-7-7--| x2
A|---5-5-5-5-5-----5-5-5-5-5--|


Important: The song above is NOT stored on the Chordie server. The original song is hosted at www.xguitar.com. Chordie works as a search engine and provides on-the-fly formatting. Chordie does not index songs against artists'/composers' will. To remove this song please click here.

This song is displayed as text-only. Transposing and tuning is only available for chordpro-songs.

Login - add to songbook

Rating click stars to rate

Layout
Accuracy

SHARE PAGE  




You need to log in to post comments