Guitar Tabs, Chords and Lyrics


A Decade Under the Influence    Taking Back Sunday



Taking Back Sunday - A Decade Under The Influence
Tabbed By: DeathKnight2014
Email: DeathKnight2014@aol.com

Tuning: Standard (E A D G B E)



Intro
Guitar 1
E|-----0-0-----0-0-----0-0-----0-0-||
B|-----0-0-----0-0-----0-0-----0-0-||
G|-----6-6-----6-6-----6-6-----6-6-||
D|-----7-7-----7-7-----7-7-----7-7-||x2
A|-0-0-----0-0-----0-0-----0-0-----||
E|---------------------------------||

E|-0-0-0-0-0-0-0-0-0-0-0-0-0-0-----||
B|-5-5-5-5-5-5-5-5-5-5-5-5-5-5-----||
G|-7-7-7-6-6-7-7-7-7-7-6-6-7-7-----||
D|-7-7-7-7-7-7-7-7-7-7-7-7-7-7-----||x2
A|-0-0-0-0-0-0-0-0-0-0-0-0-0-0-----||
E|---------------------------------||

Guitar 2
E|---------------------------------||
B|---------------------------------||
G|-77777777777777777777777777777777||
D|-77777777777777777777777777777777||
A|-55555555555555555555555555555555||
E|---------------------------------||

Verse
Guitar 1 (x2)
E|-----0-0-----0-0-----0-0-----0-0------0-0-----0-0-----0-0-----0-0-||
B|-----0-0-----0-0-----0-0-----0-0------0-0-----0-0-----0-0-----0-0-||
G|-----6-6-----6-6-----6-6-----6-6------6-6-----6-6-----6-6-----6-6-||
D|-----7-7-----7-7-----7-7-----7-7------7-7-----7-7-----7-7-----7-7-||
A|-0-0-----0-0-----0-0-----0-0------0-0-----0-0-----0-0-----0-0-----||
E|------------------------------------------------------------------||

E|-0-0-0-0-0-0-0-0-0-0-0-0-0-0-0-0-0-0-0-0-0-0-0-0-0-0-0-0----------||
B|-5-5-5-5-5-5-5-5-5-5-5-5-5-5-5-5-5-5-5-5-5-5-5-5-5-5-5-5----------||
G|-7-7-7-6-6-7-7-7-7-7-6-6-7-7-7-7-7-6-6-7-7-7-7-7-6-6-7-7----------||
D|-7-7-7-7-7-7-7-7-7-7-7-7-7-7-7-7-7-7-7-7-7-7-7-7-7-7-7-7----------||
A|-0-0-0-0-0-0-0-0-0-0-0-0-0-0-0-0-0-0-0-0-0-0-0-0-0-0-0-0----------||
E|------------------------------------------------------------------||

Guitar 2 (x2) (starts loud then gets softer...)
E|-0-0-0-0-0-0-0-0-0-0-0-0-0-0-0-0-0-0-0-0-0-0-0-0-0-0-0-0-0-0-0-0-||
B|-0-0-0-0-0-0-0-0-0-0-0-0-0-0-0-0-2-2-2-2-2-2-2-2-2-2-2-2-2-2-2-2-||
G|-6-6-6-6-6-6-6-6-6-6-6-6-6-6-6-6-2-2-2-2-2-2-2-2-2-2-2-2-2-2-2-2-||
D|-7-7-7-7-7-7-7-7-7-7-7-7-7-7-7-7-0-0-0-0-0-0-0-0-0-0-0-0-0-0-0-0-||
A|-0-0-0-0-0-0-0-0-0-0-0-0-0-0-0-0---------------------------------||
E|-----------------------------------------------------------------||

E|-0-0-0-0-0-0-0-0-0-0-0-0-0-0-0-0-0-0-0-0-0-0-0-0-0-0-0-0-0-0-0---||
B|-0-0-0-0-0-0-0-0-5-5-5-5-5-5-5-5-2-2-2-2-2-2-2-2-3-3-3-3-3-3-3---||
G|-6-6-6-6-6-6-6-6-6-6-6-6-6-6-6-6-2-2-2-2-2-2-2-2-2-2-2-2-2-2-2---||
D|-7-7-7-7-7-7-7-7-7-7-7-7-7-7-7-7-0-0-0-0-0-0-0-0-0-0-0-0-0-0-0---||
A|-0-0-0-0-0-0-0-0-0-0-0-0-0-0-0-0---------------------------------||
E|-----------------------------------------------------------------||

Chorus
Guitar 1
E|--------------------------------------------------------||
B|------------------5555555555555555----------------------||
G|------------------7777777777777777----------------------||
D|-7777777777777777-7777777777777777----------------------||x3
A|-7777777777777777---------------------------------------||
E|-5555555555555555---------------------------------------||

Guitar 2
E|--------------------------------------------------------||
B|--------------------------------------------------------||
G|------------------7777777777777777----------------------||
D|-7777777777777777-7777777777777777----------------------||x3
A|-7777777777777777-5555555555555555----------------------||
E|-5555555555555555---------------------------------------||

Repeat Verse

Chorus
Guitar 1
E|--------------------------------------------------------||
B|------------------5555555555555555----------------------||
G|------------------7777777777777777----------------------||
D|-7777777777777777-7777777777777777----------------------||x2
A|-7777777777777777---------------------------------------||
E|-5555555555555555---------------------------------------||

Guitar 2
E|--------------------------------------------------------||
B|--------------------------------------------------------||
G|-2222222222222222-7777777777777777----------------------||
D|-2222222222222222-7777777777777777----------------------||x2
A|-0000000000000000-5555555555555555----------------------||
E|--------------------------------------------------------||

Both Guitars
E|-------------------------------------||
B|-------------------------------------||
G|-------------------------------------||
D|-4444444444444444-2222222222222222---||
A|-4444444444444444-2222222222222222---||
E|-2222222222222222-0000000000000000---||

Guitar 1
E|-000000000000000000000000000000000---||
B|-333333333333333333333333333333333---||
G|-222222222222222222222222222222222---||
D|-000000000000000000000000000000000---||
A|-------------------------------------||
E|-------------------------------------||
P.M........................
Guitar 2
E|-------------------------------------||
B|-------------------------------------||
G|-777777777777777777777777777777777---||
D|-777777777777777777777777777777777---||
A|-555555555555555555555555555555555---||
E|-------------------------------------||
P.M........................

Interlude (I'm not sure if these two sound good together, but I have
Guitar 1   seen a videos of both.)
E|-----------------------------00000000000000000000000000000000-||
B|-----------------------------33333333333333333333333333333333-||
G|-777777-6-6-6-6-777777-6-6-6-22222222222222222222222222222222-||
D|-666666-6-6-6-6-666666-6-6-6-00000000000000000000000000000000-||x3
A|-444444-4-4-4-4-444444-4-4-4----------------------------------||
E|-444444-4-4-4-4-444444-4-4-4----------------------------------||

Guitar 2
E|--------------------------------------------------------------||
B|-333333-2-2-2-2-333333-2-2-2----------------------------------||
G|-222222-2-2-2-2-222222-2-2-2-77777777777777777777777777777777-||
D|-444444-4-4-4-4-444444-4-4-4-77777777777777777777777777777777-||x3
A|-444444-4-4-4-4-444444-4-4-4-55555555555555555555555555555555-||
E|--------------------------------------------------------------||

Hit xx775x once on the third time and let it ring.

Breakdown
Guitar 1
E|-0~--0-----0~--0-----0~---0~----------------------------||
B|-0~----0---0~----0---3~---2~----------------------------||
G|-2~--------1~--------2~---2~----------------------------||
D|-2~--------2~--------0~---0~----------------------------|| x3
A|-x---------2~-------------------------------------------||
E|-2~--------0~-------------------------------------------||

E|-0~--0-----0~--0-----0~-0000000000000000----------------||
B|-0~----0---0~----0---3~-3333333333333333----------------||
G|-2~--------1~--------2~-2222222222222222----------------||
D|-2~--------2~--------0~-0000000000000000----------------||
A|-x---------2~-------------------------------------------||
E|-2~--------0~-------------------------------------------||
P.M                       ................

Guitar 2
E|-0~--------0~--------0~---0~----------------------------||
B|-0~--------0~--------3~---2~----------------------------||
G|-2~--------1~--------2~---2~----------------------------||
D|-2~--------2~--------0~---0~----------------------------|| x3
A|-0~--------2~-------------------------------------------||
E|-2~--------0~-------------------------------------------||

E|-0~--------0~--------0~---------------------------------||
B|-0~--------0~--------3~---------------------------------||
G|-2~--------1~--------2~-7777777777777777----------------||
D|-2~--------2~--------0~-7777777777777777----------------||
A|-x---------2~-----------5555555555555555----------------||
E|-2~--------0~-------------------------------------------||
P.M                       ................

Piano part transcribed (start at third time through the break down,
continue until after second time throught the ending)
E|-5~--4~--0~--5~--4~--0~--0~~---9-8----------------------||
B|-5~--5~--5~--5~--5~--5~--5~~-------9--------------------||
G|-------------------------------------8------------------||
D|--------------------------------------------------------||x4
A|--------------------------------------------------------||
E|--------------------------------------------------------||

Ending
Guitar 1
E|---------------------------------00000000000000000000000000000000||
B|---------------------------------33333333333333333333333333333333||
G|---------------------------------22222222222222222222222222222222||
D|-4444444444444444222222222222222200000000000000000000000000000000||x3
A|-44444444444444442222222222222222--------------------------------||
E|-22222222222222220000000000000000--------------------------------||

E|------------------------------------0~------------------||
B|------------------------------------3~------------------||
G|------------------------------------2~------------------||
D|-4444444444444444-77777777-99999999-0~------------------||
A|-4444444444444444-77777777-99999999---------------------||
E|-2222222222222222-55555555-77777777---------------------||

Guitar 2
E|-----------------------------------------------------------------||
B|-----------------------------------------------------------------||
G|---------------------------------77777777777777777777777777777777||
D|-4444444444444444222222222222222277777777777777777777777777777777||x3
A|-4444444444444444222222222222222255555555555555555555555555555555||
E|-22222222222222220000000000000000--------------------------------||

E|--------------------------------------------------------||
B|--------------------------------------------------------||
G|------------------------------------7~------------------||
D|-4444444444444444-77777777-99999999-7~------------------||
A|-4444444444444444-77777777-99999999-5~------------------||


Important: The song above is NOT stored on the Chordie server. The original song is hosted at www.xguitar.com. Chordie works as a search engine and provides on-the-fly formatting. Chordie does not index songs against artists/composers will. To remove this song please click here.

This song is displayed as text-only. Transposing and tuning is only available for chordpro-songs.

Login - add to songbook

Rating click stars to rate

Layout
Accuracy

SHARE PAGE  




You need to log in to post comments