Guitar Tabs, Chords and Lyrics


New American Classic    Taking Back Sunday



Artist: Taking Back Sunday
Song: New American Classic
Album: Where You Want To Be
Tuning: Standard
Transcribed By: Frank T.
E-Mail: for_the_worforce182@myway.com



()=Hold Note(s)/Let Ring
p=Pull
s=Slide
/=slide
h=Hammer
x=Dead Note





6x
Intro/Verse:
E--------------------2----------------------------
B----(0)-------3----------3--5p0----3-------------
G----------------0------0---------5---------------
D---------0h4------0-0----------------------------
A----------------------------3--------------------
E----(3)------------------------------------------

3x
Chorus:
E---00-00---------0022h3-333-0-00-2h3-333----------------
B---33-33-555/777-0000-0-000-0-00-0-0-000----------------
G---00-00-000/000-0000-0-000-0-00-0-0-000----------------
D---00-00-555/777-2222-2-222-0-00-0-0-000----------------
A---33-33-333/555-2222-2-222-2-22-2-2-222----------------
E-----------------0000-0-000-3-33-3-3-333----------------

1x
"And theres one thing...."
E-------------------------------------
B-0-00-333-0-00-0-000-----------------
G-0-00-000-0-00-0-000-----------------
D-2-22-000-x-xx-x-xxx-----------------
A-2-22-222-3-33-5-555-----------------
E-0-00--------------------------------

6x
2nd Verse:
E--------------------2----------------------------
B----(0)-------3----------3--5p0----3-------------
G----------------0------0---------5---------------
D---------0h4------0-0----------------------------
A----------------------------3--------------------
E----(3)------------------------------------------


3x
Chorus:
E---00-00---------0022h3-333-0-00-2h3-333----------------
B---33-33-555/777-0000-0-000-0-00-0-0-000----------------
G---00-00-000/000-0000-0-000-0-00-0-0-000----------------
D---00-00-555/777-2222-2-222-0-00-0-0-000----------------
A---33-33-333/555-2222-2-222-2-22-2-2-222----------------
E-----------------0000-0-000-3-33-3-3-333----------------


3x
"And theres one thing...."
E-------------------------------------
B-0-00-333-0-00-0-000-----------------
G-0-00-000-0-00-0-000-----------------
D-2-22-000-x-xx-x-xxx-----------------
A-2-22-222-3-33-5-555-----------------
E-0-00--------------------------------


1x
Bridge:
E--------------------------------------------------------------------
B-0-0-00--3-333-555-55-3-3-5-5--7-77-7/-3-000-2h3-0-00--(5)---3h5----
G-0-0-00--0-000-000-00-0-0-0-0--0-00-0/-0-000-----0-00--(0)-------4--
D-0-0-00--0-000-000-00-0-0-0-0--x-xx------000-----x-xx---------------
A-x-x-xx--x-xxx-xxx-xx-x-x-x-x--7-77------xxx-----3-33---------------
E-3-3-33--3-333-333-33-3-3-3-3------------333------------------------

E---------------------------------------------
B---3h5----5-55-555----5p35p3-(3)-------------
G-------4--0-00-000---(0)-0---(0)-------------
D----------x-xx-xxx---------------------------
A----------5-55-555---------------------------
E---------------------------------------------

7x
E-------------------
B---7---------------
G---------(7)-------
D------5------------
A-------------------
E-------------------

1x
Acoustic Solo:
E--3-3-3h5p3-3-33--------(3)--3-2---2h3--3/5---7-777-7/8-88-8p7-77--
B--3-3-3h5p3-3-33--------(3)------3------3/5---8-888-7/8-88-8p7-77--
G-------------------------------------------------------------------
D-------------------------------------------------------------------
A-------------------------------------------------------------------
E-------------------------------------------------------------------


E--8p7-8--7-8p7-8-7-8p7-8-7------10-----10-----10-----10-----10---
B--8p7-8--7-8p7-8-7-8p7-8-7--7-8----7-8----7-8----7-8----7-8------
G-----------------------------------------------------------------
D-----------------------------------------------------------------
A-----------------------------------------------------------------
E-----------------------------------------------------------------


E------10------10------10---------------------
B--7-8-----7-8-----7-8------------------------
G---------------------------------------------
D---------------------------------------------
A---------------------------------------------
E---------------------------------------------

3x
Chorus:
E---00-00---------0022h3-333-0-00-2h3-333----------------
B---33-33-555/777-0000-0-000-0-00-0-0-000----------------
G---00-00-000/000-0000-0-000-0-00-0-0-000----------------
D---00-00-555/777-2222-2-222-0-00-0-0-000----------------
A---33-33-333/555-2222-2-222-2-22-2-2-222----------------
E-----------------0000-0-000-3-33-3-3-333----------------


3x
"And theres one thing...."
E-------------------------------------
B-0-00-333-0-00-0-000-----------------
G-0-00-000-0-00-0-000-----------------
D-2-22-000-x-xx-x-xxx-----------------
A-2-22-222-3-33-5-555-----------------
E-0-00--------------------------------


Outro:
E--------------------2----------------------------
B----(0)-------3----------3--5p0----3-------------
G----------------0------0---------5---------------
D---------0h4------0-0----------------------------
A----------------------------3--------------------
E----(3)------------------------------------------

E--------------------2---------------------(3)----
B----(0)-------3----------3--5p0----3---0--(3)----
G----------------0------0---------5---4----(0)----
D---------0h4------0-0---------------------(0)----
A----------------------------3-------------(2)----


Important: The song above is NOT stored on the Chordie server. The original song is hosted at www.xguitar.com. Chordie works as a search engine and provides on-the-fly formatting. Chordie does not index songs against artists'/composers' will. To remove this song please click here.

This song is displayed as text-only. Transposing and tuning is only available for chordpro-songs.

Login - add to songbook

Rating click stars to rate

Layout
Accuracy

SHARE PAGE  




You need to log in to post comments