Guitar Tabs, Chords and Lyrics


Set Phasers to Stun    Taking Back Sunday



Taking Back Sunday - Set Phasers to Stun
Tabbed By: its_right
Email: superstar@aol.com

Tuning: Standard (E A D G B E)

if you see any problems let me know, but other than that it sounds pretty damn good to me.

Guitar 1 - Intro 4x
e ------------------------------------
B ------------------------------------
G --9-9-9-9-9-9-9-9--8-8-8-8-8-8-8-8--
D --9-9-9-9-9-9-9-9--9-9-9-9-9-9-9-9--
A ------------------------------------
E ------------------------------------

Guitar 2 - Intro 4x
e ---------
B ---------
G ----8~---
D --9~--9~-
A ---------
E ---------

Guitar 1 - Verse 4x
e ------------------------------------
B ------------------------------------
G --9-9-9-9-9-9-9-9--8-8-8-8-8-8-8-8--
D --9-9-9-9-9-9-9-9--9-9-9-9-9-9-9-9--
A ------------------------------------
E ------------------------------------

Guitar 2 - Verse 8x
e ---------------------------------------
B ---------------------------------------
G --------8-8-8------8-----8-8------8-8--
D --9-9-9-------9-9----9-9------9-9------
A ---------------------------------------
E ---------------------------------------
PM  * * * * * * * *  * * * * *  * * * *

Guitar 1 & 2 -  Chorus (2x)
e -------------------------------------------------------------
B -------------------------------------------------------------
G -------------------------------------------------------------
D --7-7-7-7-7-7-7-7--9-9-9-9-9-9-9-9--11-11-11-11-11-11-11-11--
A --7-7-7-7-7-7-7-7--9-9-9-9-9-9-9-9--11-11-11-11-11-11-11-11--
E --5-5-5-5-5-5-5-5--7-7-7-7-7-7-7-7---9--9--9--9--9--9--9--9--

e ---------------------------
B ---------------------------
G ---------------------------
D --14-14-14-14-14-14-14-14--
A --14-14-14-14-14-14-14-14--
E --12-12-12-12-12-12-12-12--

Guitar 1 - Intro 2x
e ------------------------------------
B ------------------------------------
G --9-9-9-9-9-9-9-9--8-8-8-8-8-8-8-8--
D --9-9-9-9-9-9-9-9--9-9-9-9-9-9-9-9--
A ------------------------------------
E ------------------------------------

Guitar 2 - Intro 4x
e ---------
B ---------
G ----8~---
D --9~--9~-
A ---------
E ---------

Guitar 1 - Verse 4x
e ------------------------------------
B ------------------------------------
G --9-9-9-9-9-9-9-9--8-8-8-8-8-8-8-8--
D --9-9-9-9-9-9-9-9--9-9-9-9-9-9-9-9--
A ------------------------------------
E ------------------------------------

Guitar 2 - Verse 8x
e ---------------------------------------
B ---------------------------------------
G --------8-8-8------8-----8-8------8-8--
D --9-9-9-------9-9----9-9------9-9------
A ---------------------------------------
E ---------------------------------------
PM  * * * * * * * *  * * * * *  * * * *

Guitar 1 & 2 -  Chorus (3x)
e -------------------------------------------------------------
B -------------------------------------------------------------
G -------------------------------------------------------------
D --7-7-7-7-7-7-7-7--9-9-9-9-9-9-9-9--11-11-11-11-11-11-11-11--
A --7-7-7-7-7-7-7-7--9-9-9-9-9-9-9-9--11-11-11-11-11-11-11-11--
E --5-5-5-5-5-5-5-5--7-7-7-7-7-7-7-7---9--9--9--9--9--9--9--9--

e ---------------------------
B ---------------------------
G ---------------------------
D --14-14-14-14-14-14-14-14--
A --14-14-14-14-14-14-14-14--
E --12-12-12-12-12-12-12-12--

Guitar 1 -  Chorus before bridge (1z)
e -----------------------------------------------------
B -----------------------------------------------------
G -----------------------------------------------------
D --7-7-7-7-7-7-7-7--9-9-9-9-9-9-9-9--6-6-6-6-6-6-6-6~-
A --7-7-7-7-7-7-7-7--9-9-9-9-9-9-9-9--6-6-6-6-6-6-6-6~-
E --5-5-5-5-5-5-5-5--7-7-7-7-7-7-7-7--4-4-4-4-4-4-4-4~-

Guitar 2 - Pre-Bridge (almost pinch harmonic sounding at points so throw a couple in)
e -------
B -------
G --12v--
D -------
A -------
E -------

Guitar 1 - Pre-Bridge (do some pick scratching nice and slow)

Guitar 2 - Bridge (3 and a half times)
e ------7------7--4b(1/2)--------------------
B ----5------5---------------5-4------5-7-4--
G --6------6---------------6-----4--6--------
D -------------------------------------------
A -------------------------------------------
E -------------------------------------------

Guitar 1 - Ending Chorus (2x)
Part 1 (3x)
e ------------------------------------
B ------------------------------------
G ------------------------------------
D --7-7-7-7-7-7-7-7--9-9-9-9-9-9-9-9--
A --7-7-7-7-7-7-7-7--9-9-9-9-9-9-9-9--
E --5-5-5-5-5-5-5-5--7-7-7-7-7-7-7-7--

Part 2 (1x)
e ----------------------------------------------------
B ----------------------------------------------------
G ----------------------------------------------------
D --11-11-11-11-11-11-11-11--13-13-13-13-13-13-13-13--
A --11-11-11-11-11-11-11-11--13-13-13-13-13-13-13-13--
E ---9--9--9--9--9--9--9--9--11-11-11-11-11-11-11-11--

Guitar 1 (End) (3x)
e ----------------------------
B ----------------------------
G ----------------------------
D --6-6--6-6--6-6--6-6--6--6--
A --6-6--6-6--6-6--6-6--6--6--
E --4-4--4-4--4-4--4-4--4--4--

Guitar 2 (End)
e ------7------7--4b(1/2)------------------------7-----7--4b(1/2)--
B ----5------5---------------5-4------5-7-4----5-----5-------------
G --6------6---------------6-----4--6--------6-----6---------------
D -----------------------------------------------------------------
A -----------------------------------------------------------------
E -----------------------------------------------------------------

Guitar 1
e --------------------
B --------------------
G --------------------
D --6--6--6--6--6--6--
A --6--6--6--6--6--6--


Important: The song above is NOT stored on the Chordie server. The original song is hosted at www.xguitar.com. Chordie works as a search engine and provides on-the-fly formatting. Chordie does not index songs against artists'/composers' will. To remove this song please click here.

This song is displayed as text-only. Transposing and tuning is only available for chordpro-songs.

Login - add to songbook

Rating click stars to rate

Layout
Accuracy

SHARE PAGE  




You need to log in to post comments