Guitar Tabs, Chords and Lyrics


This Photograph Is Proof (I Know You Know)    Taking Back Sunday



Tabbed by |?hiL

Artist: Taking Back Sunday

Song Title: This Photograph is Proof

Album: Where You Want To Be (2004, Victory Records)



* Palm Muted



Guitar One Intro/Verse 4x (echo pedal option)
E------------------------------------------------------------------------
B-7--7--7--5--5--5--7--7--7--5--5--5--2--2--2--3--3--3--2--2--2--3--3--3-
G------------------------------------------------------------------------
D------------------------------------------------------------------------
A-5--5--5--5--5--5--5--5--5--5--5--5--2--2--2--2--2--2--2--2--2--2--2--2-
E------------------------------------------------------------------------


Guitar Two Intro/Verse 3x
E-------------------------------------------------------------------------
B--------*--*--*--*---------*--*--*--*-------*--*--*--*--------*--*--*--*-
G-*--*---14-14-14-12--*--*--14-14-14-12--*-*-11-11-11-7---*-*--11-11-11-9-
D-12-12--14-14-14-12--12-12-14-14-14-12--9-9-11-11-11-7---9-9--11-11-11-9-
A-12-12--12-12-12-----12-12-12-12-12-----9-9-9--9--9------9-9--9--9--9----
E-10-10---------------10-10--------------7-7--------------7-7-------------


Now I'm lying on the table...


Guitar One Prechorus
E-------------------0--0--0--2--2--2--------------------
B-2--2--2--3--3--3--------------------2--2--2--3--3--3--
G-------------------------------------------------------
D-0--0--0--0--0--0--0--0--0--0--0--0--0--0--0--0--0--0--
A-------------------------------------------------------
E-------------------------------------------------------

E-------------------------------------0--0--0--2--2--2-
B-2--2--2--3--3--3--2--2--2--3--3--3-------------------
G------------------------------------------------------
D-0--0--0--0--0--0--0--0--0--0--0--0--0--0--0--0--0--0-
A------------------------------------------------------
E------------------------------------------------------


Guitar Two Prechorus
E---------------000---222-------------------------
B---222---333---------------222---333---222---333-
G-------------------------------------------------
D-0-----0-----0-----0-----0-----0-----0-----0-----
A-------------------------------------------------
E-------------------------------------------------

E---000---222-----------------
B-----------------------------
G---------------------*-------
D-0-----0-----5-------5-------
A-------------5-(12x)-5-(12x)-
E-------------3-------3-------


I know you know everything...


Guitar One and Two Chorus (2x)
E----------------------------------------
B----------------------------------------
G-7-77777-77777-77777-7777---------------
D-7-77777-77777-75555-5555-9999999999999-
A-5-55555-55555-55555-5555-9999999999999-
E--------------------------7777777777777-

E------------------------------------------
B------------------------------------------
G------------------------------------------
D-101010101010101010101010101010-----------
A-101010101010101010101010101010-(LET RING)
E-8-8-8-8-8-8-8-8-8-8-8-8-8-8-8------------


I know you didn't mean it...


Guitar One Short Bridge
E------------------------------------
B-2--2--2--3--3--3--2--2--2--3--3--3-
G------------------------------------
D------------------------------------
A-2--2--2--2--2--2--2--2--2--2--2--2-
E------------------------------------


Guitar Two Short Bridge
E-----------------------------------
B-----*--*--*--*--------*--*--*--*--
G-*-*-11-11-11-7---*-*--11-11-11-9--
D-9-9-11-11-11-7---9-9--11-11-11-9--
A-9-9-9--9--9------9-9--9--9--9-----
E-7-7--------------7-7--------------


So we're talking forever and you almost feel better...


Guitar One Verse (2x)
E------------------------------------------------------------------------
B-7--7--7--5--5--5--7--7--7--5--5--5--2--2--2--3--3--3--2--2--2--3--3--3-
G------------------------------------------------------------------------
D------------------------------------------------------------------------
A-5--5--5--5--5--5--5--5--5--5--5--5--2--2--2--2--2--2--2--2--2--2--2--2-
E------------------------------------------------------------------------


Guitar Two Verse (2x)
E--------------------------------------------------------------------------
B--------*--*--*--*---------*--*--*--*-------*--*--*--*--------*--*--*--*--
G-*--*---14-14-14-12--*--*--14-14-14-12--*-*-11-11-11-7---*-*--11-11-11-9--
D-12-12--14-14-14-12--12-12-14-14-14-12--9-9-11-11-11-7---9-9--11-11-11-9--
A-12-12--12-12-12-----12-12-12-12-12-----9-9-9--9--9------9-9--9--9--9-----
E-10-10---------------10-10--------------7-7--------------7-7--------------


Now I'm lying on the table...



Guitar One Prechorus
E-------------------0--0--0--2--2--2--------------------
B-2--2--2--3--3--3--------------------2--2--2--3--3--3--
G-------------------------------------------------------
D-0--0--0--0--0--0--0--0--0--0--0--0--0--0--0--0--0--0--
A-------------------------------------------------------
E-------------------------------------------------------

E-------------------------------------0--0--0--2--2--2-
B-2--2--2--3--3--3--2--2--2--3--3--3-------------------
G------------------------------------------------------
D-0--0--0--0--0--0--0--0--0--0--0--0--0--0--0--0--0--0-
A------------------------------------------------------
E------------------------------------------------------


Guitar Two Prechorus
E---------------000---222-------------------------
B---222---333---------------222---333---222---333-
G-------------------------------------------------
D-0-----0-----0-----0-----0-----0-----0-----0-----
A-------------------------------------------------
E-------------------------------------------------

E---000---222-----------------
B-----------------------------
G---------------------*-------
D-0-----0-----5-------5-------
A-------------5-(12x)-5-(12x)-
E-------------3-------3-------


I know you know everything...


Guitar One and Two Chorus (2x)						
E----------------------------------------
B----------------------------------------
G-7-77777-77777-77777-7777---------------
D-7-77777-77777-75555-5555-9999999999999-
A-5-55555-55555-55555-5555-9999999999999-
E--------------------------7777777777777-

E--------------------------------|------------|
B--------------------------------|------------|
G--------------------------------|------------|
D-101010101010101010101010101010-|-9----------|
A-101010101010101010101010101010-|-9(LET RING)|
E-8-8-8-8-8-8-8-8-8-8-8-8-8-8-8--|-7----------|


*Heavy Reverb*


Stop everything start it all over...


Bridge Guitar One 4x
E-------------------------------------------------------------
B-------------------------------------------------------------
G-7-7-7-7-7-7-9-9-9-9-9-9-11-11-11-11-11-11-12-12-12-12-12-12-
D-------------------------------------------------------------
A-5-5-5-5-5-5-7-7-7-7-7-7-9--9--9--9--9--9--10-10-10-10-10-10-
E-------------------------------------------------------------

			   1st 3 Times          Last Time
E---------------------|------------------------|----------|
B---------------------|------------------------|----------|
G-7-7-7-7-7-7-9-9-9-9-|-9-9-11-11-11-11--------|-*--------|
D---------------------|-----------------2-2-2--|-2-(12x)--|
A-5-5-5-5-5-5-7-7-7-7-|-7-7-9--9--9--9--2-2-2--|-2--------|
E---------------------|-----------------0-0-0--|-0--------|


Bridge Guitar Two 4X
E-------------------------------------------------------------
B-------------------------------------------------------------
G-12-12-12-12-12-12-11-11-11-11-11-11-9-9-9-9-9-9-7-7-7-7-7-7-
D-------------------------------------------------------------
A-10-10-10-10-10-10-9--9--9--9--9--9--7-7-7-7-7-7-5-5-5-5-5-5-
E-------------------------------------------------------------

				    1st 3 Times        Last Time
E------------------------------|----------------------|----------|
B------------------------------|----------------------|----------|
G-12-12-12-12-12-12-11-11-11-11|-11-11-9-9-9-9--------|-*--------|
D------------------------------|---------------2-2-2--|-2-(12x)--|
A-10-10-10-10-10-10-9--9--9--9-|-9--9--7-7-7-7-2-2-2--|-2--------|
E------------------------------|---------------0-0-0--|-0--------|


I know you know everything...


Guitar One Final Chorus (4x)				   Last Time
E--------------------------------------------------------|--------------|
B--------------------------------------------------------|--------------|
G-7-77777-77777-77777-7777-------------------------------|-7------------|
D-7-77777-77777-75555-5555-9999999999999-555555555555555-|-7-(LET RING)-|
A-5-55555-55555-55555-5555-9999999999999-555555555555555-|-5------------|
E--------------------------7777777777777-333333333333333-|--------------|


Guitar Two Final Chorus
1x
E----------------------------------------------------------
B-------------------------3--------------------------------
G-2-2-2h4p0h2-2h4-0---0-----2------------------------------
D-------------------4---4-----444444-222222-000000000000---
A----------------------------------------------------------
E----------------------------------------------------------

3x
E----------------------------------------------------------
B-------------------------3--------------------------------
G-2-2-2h4p0h2-2h4-0---0-----2---------------000000---------
D-------------------4---4-----444444-222222--------444444--
A----------------------------------------------------------


Important: The song above is NOT stored on the Chordie server. The original song is hosted at www.xguitar.com. Chordie works as a search engine and provides on-the-fly formatting. Chordie does not index songs against artists'/composers' will. To remove this song please click here.

This song is displayed as text-only. Transposing and tuning is only available for chordpro-songs.

Login - add to songbook

Rating click stars to rate

Layout
Accuracy

SHARE PAGE  




You need to log in to post comments