Guitar Tabs, Chords and Lyrics


All to Myself    Tantric



TANTRIC
Track 10-All To Myself

Transcribed by: Rob "Fetus" Torrey
Email: fetusinchains@aol.com

Half Step Down
D-A-D-G-B-E

Intro
E---------------------------
B---------------------------
G---------------------------
D---------------------------
A--5/--5/--0-5-5-3-5-0-8----
D---------------------------

Chorus (Pick these chords)
E---------
B--5------
G--7--5---
D--7--5---x4
A--5--3---
D---------

Verse
E--------------------------
B-----5-6-5----------------
G----7---------------------
D---7-------0-0-0-0-0-0----
A--5--------3-5-3-5-3-5----
D-----------0-0-0-0-0-0----

Pre-Chorus (distortion)
E--------------------------
B--------------------------
G--------------------------
D--0-0--0-3--5-------------x4
A--0-0--0-3--5-------------
D--0-0--0-3--5-------------

Intro x2
Chorus
Verse x8
Pre-Chorus
Chorus
Verse x8
Pre-Chorus
Chorus
Intro x1
Verse x8 & Solo
Pre-Chorus


Important: The song above is NOT stored on the Chordie server. The original song is hosted at www.xguitar.com. Chordie works as a search engine and provides on-the-fly formatting. Chordie does not index songs against artists'/composers' will. To remove this song please click here.

This song is displayed as text-only. Transposing and tuning is only available for chordpro-songs.

Login - add to songbook

Rating click stars to rate

Layout
Accuracy

SHARE PAGE  




You need to log in to post comments