Guitar Tabs, Chords and Lyrics


1 Nite Stand   Taproot



Taproot - One Night Stand

clean/
A-------------------------------------
F-------------------------------------
C---9-9-9-9-9^9--9-9-9-9-9-9-9^9----7-
G-----------half--------------half----
D---7-7-7-7-7^7--7-7-7-7-7-7-7^7--0-5-
A---0-0-0-0-0-0--0-0-0-0-0-0-0-0--5-0-

"i've come to grips (come to grips)
on reality through fatality
never realized how much happiness brings to me"
A-------------------------------------
F-------------------------------------
C---9-9-9-9-9^9--9-9-9-9-9-9-9^9----7-
G-----------half--------------half----
D---7-7-7-7-7^7--7-7-7-7-7-7-7^7--0-5-
A---0-0-0-0-0-0--0-0-0-0-0-0-0-0--5-0-


A----------------------8-8-8-8-8-8-8-
F----------------------6-6-6-6-6-6-6-
C----------------------6-6-6-6-6-6-6-
G---2-2--2--2-4-4-4-4----------------
D---2-2--2--2-4-4-4-4----------------
A---0-0--0--0-2-2-2-2----------------


A--------------------------0--0-----
F--------------------------0--0-----
C--------------------------0--0-----
G---2-2--2--2-3/5-5-5-5-5-4--4--4---
D---2-2--2--2-3/5-5-5-5-5-4--4--4---
A---0-0--0--0-1/3-3-3-3-3-2--2--2---

A----------------------8-8-8-8-8-8-8-
F----------------------6-6-6-6-6-6-6-
C----------------------6-6-6-6-6-6-6-
G---2-2--2--2-4-4-4-4----------------
D---2-2--2--2-4-4-4-4----------------
A---0-0--0--0-2-2-2-2----------------

A--------------------------------------
F--------------------------------------
C---9-9-9-9-9^9---9-9-9-9-9-9-9^9----7-
G-----------half--------------half-----
D---7-7-7-7-7^7-7-7-7-7-7-7-7-7^7--0-5-
A---0-0-0-0-0-0-0-0-0-0-0-0-0-0-0--5-0-

"latley, doubt and worries
inflicted my mind with an illness of ego, worst of its kind.
been so busy unhappy un-nerved"
A-------------------------------------
F-------------------------------------
C---9-9-9-9-9^9--9-9-9-9-9-9-9^9----7-
G-----------half--------------half----
D---7-7-7-7-7^7--7-7-7-7-7-7-7^7--0-5-
A---0-0-0-0-0-0--0-0-0-0-0-0-0-0--5-0-

"i can"
A------------------------------------------------------
F------------------------------------------------------
C---13-13-13-13-13-13-13-13-13-13-13-8-8-8-8-8-8-8-8-8-
G---13-13-13-13-13-13-13-13-13-13-13-8-8-8-8-8-8-8-8-8-
D---11-11-11-11-11-11-11-11-11-11-11-6-6-6-6-6-6-6-6-6-
A------------------------------------------------------


"see my destiny is chasing me"
A-------------------------------------
F-------------------------------------
C---9-9-9-9-9^9--9-9-9-9-9-9-9^9----7-
G-----------half--------------half----
D---7-7-7-7-7^7--7-7-7-7-7-7-7^7--0-5-
A---0-0-0-0-0-0--0-0-0-0-0-0-0-0--5-0-

"i'm"
A------------------------------------------------------
F------------------------------------------------------
C---13-13-13-13-13-13-13-13-13-13-13-8-8-8-8-8-8-8-8-8-
G---13-13-13-13-13-13-13-13-13-13-13-8-8-8-8-8-8-8-8-8-
D---11-11-11-11-11-11-11-11-11-11-11-6-6-6-6-6-6-6-6-6-
A------------------------------------------------------

"finally happy and ready to go"
A-------------------------------------
F-------------------------------------
C---9-9-9-9-9^9--9-9-9-9-9-9-9^9----7-
G-----------half--------------half----
D---7-7-7-7-7^7--7-7-7-7-7-7-7^7--0-5-
A---0-0-0-0-0-0--0-0-0-0-0-0-0-0--5-0-

"had a one nite stand with myself last night
fright of a"
A----------------------8-8-8-8-8-8-8-
F----------------------6-6-6-6-6-6-6-
C----------------------6-6-6-6-6-6-6-
G---2-2--2--2-4-4-4-4----------------
D---2-2--2--2-4-4-4-4----------------
A---0-0--0--0-2-2-2-2----------------

"lifetime"
A--------------------------0--0-----
F--------------------------0--0-----
C--------------------------0--0-----
G---2-2--2--2-3/5-5-5-5-5-4--4--4---
D---2-2--2--2-3/5-5-5-5-5-4--4--4---
A---0-0--0--0-1/3-3-3-3-3-2--2--2---

"once again i have proven my strength to my self, alone"
A----------------------8-8-8-8-8-8-8-
F----------------------6-6-6-6-6-6-6-
C----------------------6-6-6-6-6-6-6-
G---2-2--2--2-4-4-4-4----------------
D---2-2--2--2-4-4-4-4----------------
A---0-0--0--0-2-2-2-2----------------



A--------------------------------------
F--------------------------------------
C---9-9-9-9-9^9---9-9-9-9-9-9-9^9----7-
G-----------half--------------half-----
D---7-7-7-7-7^7-7-7-7-7-7-7-7-7^7--0-5-
A---0-0-0-0-0-0-0-0-0-0-0-0-0-0-0--5-0-

"latley, doubt and worries
inflicted my mind with an illness of ego, worst of its kind.
been so busy unhappy un-nerved"
A-------------------------------------
F-------------------------------------
C---9-9-9-9-9^9--9-9-9-9-9-9-9^9----7-
G-----------half--------------half----
D---7-7-7-7-7^7--7-7-7-7-7-7-7^7--0-5-
A---0-0-0-0-0-0--0-0-0-0-0-0-0-0--5-0-

"i can"
A------------------------------------------------------
F------------------------------------------------------
C---13-13-13-13-13-13-13-13-13-13-13-8-8-8-8-8-8-8-8-8-
G---13-13-13-13-13-13-13-13-13-13-13-8-8-8-8-8-8-8-8-8-
D---11-11-11-11-11-11-11-11-11-11-11-6-6-6-6-6-6-6-6-6-
A------------------------------------------------------


"see my destiny is chasin me"
A-------------------------------------
F-------------------------------------
C---9-9-9-9-9^9--9-9-9-9-9-9-9^9----7-
G-----------half--------------half----
D---7-7-7-7-7^7--7-7-7-7-7-7-7^7--0-5-
A---0-0-0-0-0-0--0-0-0-0-0-0-0-0--5-0-

"i'm"
A------------------------------------------------------
F------------------------------------------------------
C---13-13-13-13-13-13-13-13-13-13-13-8-8-8-8-8-8-8-8-8-
G---13-13-13-13-13-13-13-13-13-13-13-8-8-8-8-8-8-8-8-8-
D---11-11-11-11-11-11-11-11-11-11-11-6-6-6-6-6-6-6-6-6-
A------------------------------------------------------

"finally happy and ready to go"
A-------------------------------------
F-------------------------------------
C---9-9-9-9-9^9--9-9-9-9-9-9-9^9----7-
G-----------half--------------half----
D---7-7-7-7-7^7--7-7-7-7-7-7-7^7--0-5-
A---0-0-0-0-0-0--0-0-0-0-0-0-0-0--5-0-

"had a one nite stand with myself last night
fright of a"
A----------------------8-8-8-8-8-8-8-
F----------------------6-6-6-6-6-6-6-
C----------------------6-6-6-6-6-6-6-
G---2-2--2--2-4-4-4-4----------------
D---2-2--2--2-4-4-4-4----------------
A---0-0--0--0-2-2-2-2----------------

"lifetime"
A--------------------------0--0-----
F--------------------------0--0-----
C--------------------------0--0-----
G---2-2--2--2-3/5-5-5-5-5-4--4--4---
D---2-2--2--2-3/5-5-5-5-5-4--4--4---
A---0-0--0--0-1/3-3-3-3-3-2--2--2---

"once again i have proven my strength to my self, alone"
A----------------------8-8-8-8-8-8-8-
F----------------------6-6-6-6-6-6-6-
C----------------------6-6-6-6-6-6-6-
G---2-2--2--2-4-4-4-4----------------
D---2-2--2--2-4-4-4-4----------------
A---0-0--0--0-2-2-2-2----------------

repeat chorus


A------------------------------------------------------
F------------------------------------------------------
C---13-13-13-13-13-13-13-13-13-13-13-8-8-8-8-8-8-8-8-8-
G---13-13-13-13-13-13-13-13-13-13-13-8-8-8-8-8-8-8-8-8-
D---11-11-11-11-11-11-11-11-11-11-11-6-6-6-6-6-6-6-6-6-
A------------------------------------------------------


A---------------------------------------------------
F---------------------------------------------------
C---9-9-9-9-9^9---9-9-------------------------------
G-----------half------13-13-13-13-13-13-8-8-8-8-8-8-
D---7-7-7-7-7^7-7-7-7-11-11-11-11-11-11-6-6-6-6-6-6-
A---0-0-0-0-0-0-0-0-0-------------------------------


A-----
F-----
C-----
G-----
D---2-
A---0-


A-------------------------------------
F-------------------------------------
C---9-9-9-9-9^9--9-9-9-9-9-9-9^9----7-
G-----------half--------------half----
D---7-7-7-7-7^7--7-7-7-7-7-7-7^7--0-5-
A---0-0-0-0-0-0--0-0-0-0-0-0-0-0--5-0-

"had a one nite stand with myself last night
fright of a"
A----------------------8-8-8-8-8-8-8-
F----------------------6-6-6-6-6-6-6-
C----------------------6-6-6-6-6-6-6-
G---2-2--2--2-4-4-4-4----------------
D---2-2--2--2-4-4-4-4----------------
A---0-0--0--0-2-2-2-2----------------

"lifetime"
A--------------------------0--0-----
F--------------------------0--0-----
C--------------------------0--0-----
G---2-2--2--2-3/5-5-5-5-5-4--4--4---
D---2-2--2--2-3/5-5-5-5-5-4--4--4---
A---0-0--0--0-1/3-3-3-3-3-2--2--2---

"once again i have proven my STRENGTH"
A----------------------8-8-8-8-8-8-8-
F----------------------6-6-6-6-6-6-6-
C----------------------6-6-6-6-6-6-6-
G---2-2--2--2-4-4-4-4----------------
D---2-2--2--2-4-4-4-4----------------
A---0-0--0--0-2-2-2-2----------------



Important: The song above is NOT stored on the Chordie server. The original song is hosted at www.xguitar.com. Chordie works as a search engine and provides on-the-fly formatting. Chordie does not index songs against artists'/composers' will. To remove this song please click here.

This song is displayed as text-only. Transposing and tuning is only available for chordpro-songs.

Login - add to songbook

Rating click stars to rate

Layout
Accuracy

SHARE PAGE  




You need to log in to post comments