Guitar Tabs, Chords and Lyrics


All Night Thing   Unknown



Temple of the Dog (Temple of the Dog)

ALL NIGHT THING - tabbed by Evan Cowan 
Organ arranged for guitar

-|----------------------------------------------------------------|-----------
-|----------------0-----------------------------2-----------------|-----------
-|----------------2-----2-----------------------2--------4--------|-----------
-|----------------2-----0-----------------------4--------2--------|-----------
-|----------------0-----0-----------------------4--------2--------|-----------
-|----------------------------------------------2--------0--------|-----------
  She motioned to me         that she wanted to leave                         

-|----------------------------------------------------------------|-----------
-|------------------------------------------------------3---------|-----------
-|-----------------2-------4--------------------2-------4---------|-----------
-|-----------------0-------2--------------------0-------5---------|-----------
-|-----------------0-------2--------------------0-------5---------|-----------
-|-------------------------0----------------------------3---------|-----------
  And go somewhere warm          where we'd be alone                          

-|------------------------------------------------------|---------------------
-|---------1------------------------------------1-------|---------------------
-|---------0--------4------------------2--------2-------|---------------------
-|---------2--------4------------------0--------3-------|---------------------
-|---------3--------2------------------0--------3-------|---------------------
-|----------------------------------------------1-------|---------------------
  I do not know           what's going on                                     

-|---------------------------------------------------------------|------------
-|-------------------------------------0------------------1------|------------
-|--------4-----------2----------------2------------------2------|------------
-|--------2-----------0----------------2------------------3------|------------
-|--------2-----------0----------------0------------------3------|------------
-|--------0-----------------------------------------------1------|------------
  But I'm guessing         ooh It's an all night thing                        

-|----------------------------------------------|-----------------------------
-|-3------------0-----------------1------3------|-----------------------------
-|-4------------2-----------------2------4------|-----------------------------
-|-5------------2-----------------3------5------|-----------------------------
-|-5------------0-----------------3------5------|-----------------------------
-|-3------------------------------1------3------|-----------------------------
   Yeah it's an all night thing                                               

-|--------------------------------------------------------------------------|-
-|------------------------------1-------------------0-------------3--0------|-
-|-----------2------------------2-------------------2-------------2--2------|-
-|-----------0------------------3-------------------2-------------0--2------|-
-|-----------0------------------3-------------------0----------------0------|-
-|------------------------------1-------------------------------------------|-
  If it's an all night thing         nobody's gonna make it end               

-|--------------------------------------------------------------------------|-
-|-------------------------1--------------------------0-------------3--0----|-
-|----------2--------------2--------------------------2-------------2--2----|-
-|----------0--------------3--------------------------2-------------0--2----|-
-|----------0--------------3--------------------------0----------------0----|-
-|-------------------------1------------------------------------------------|-
  And if it don't begin         don't worry that I'll take offense            

-|------------------------------------|---------------------------------------
-|-----------------------------1------|---------------------------------------
-|-----------2-----------------2------|---------------------------------------
-|-----------0-----------------3------|---------------------------------------
-|-----------0-----------------3------|---------------------------------------
-|-----------------------------1------|---------------------------------------
  If it's an all night thing                                                  

-|--------------------------------------------------|-------------------------
-|-------------------2------------------------------|-------------------------
-|-------------------2------------------------------|-------------------------
-|-------------------4------------------------------|-------------------------
-|-------------------4------------------------------|-------------------------
-|-------------------2------------------------------|-------------------------
  And we fall like a tear falling to the ground                               

-|--------------------------------------------------------------------------|-
-|--------------------------------------------------------------3-----------|-
-|-4------------------------------4-----------------------------2-----------|-
-|-4------------------------------2-----------------------------0-----------|-
-|-2------------------------------2-----------------------------0-----------|-
-|--------------------------------0-----------------------------------------|-
   I'll never come around         you'll never hear a word from me            

-|-------------------------------------------------|--------------------------
-|--3--------------0-----------------1------3------|--------------------------
-|--4--------------2-----------------2------4------|--------------------------
-|--5--------------2-----------------3------5------|--------------------------
-|--5--------------0-----------------3------5------|--------------------------
-|--3--------------------------------1------3------|--------------------------
        If it's an all night thing                                            

-|--------------------------------------------------------------|-------------
-|--------------------0-----------------------2-----------------|-------------
-|--2-----------------2-------2---------------2--------4--------|-------------
-|--0-----------------2-------0---------------4--------2--------|-------------
-|--0-----------------0-------0---------------4--------2--------|-------------
-|--------------------------------------------2--------0--------|-------------
       Well I walked alone         feeling at ease                            

-|-------------------------------------------------------|--------------------
-|----------------------------------------------3--------|--------------------
-|-------------2------4---------------2---------4--------|--------------------
-|-------------0------2---------------0---------5--------|--------------------
-|-------------0------2---------------0---------5--------|--------------------
-|--------------------0-------------------------3--------|--------------------
  Falling like rain   oooh   into her scheme                                  

-|----------------------------------------------------|-----------------------
-|--------------1------------------------------1------|-----------------------
-|--------------0-----4-----------------2------2------|-----------------------
-|--------------2-----4-----------------0------3------|-----------------------
-|--------------3-----2-----------------0------3------|-----------------------
-|---------------------------------------------1------|-----------------------
  She won't let on         what that'll be                                    

-|--------------------------------------------------------------------|-------
-|----------------------------------------0------------------1--------|-------
-|-------------4-----------2--------------2------------------2--------|-------
-|-------------2-----------0--------------2------------------3--------|-------
-|-------------2-----------0--------------0------------------3--------|-------
-|-------------0---------------------------------------------1--------|-------
  Yeah but I'm guessing      oooh it's an all night thing                     

-|----------------------------------------------|-----------------------------
-|-3------------0-----------------1------3------|-----------------------------
-|-4------------2-----------------2------4------|-----------------------------
-|-5------------2-----------------3------5------|-----------------------------
-|-5------------0-----------------3------5------|-----------------------------
-|-3------------------------------1------3------|-----------------------------
   Yeah it's an all night thing                                               

-|--------------------------------------------------------------------------|-
-|------------------------------1-------------------0------------3--0-------|-
-|-----------2------------------2-------------------2------------2--2-------|-
-|-----------0------------------3-------------------2------------0--2-------|-
-|-----------0------------------3-------------------0---------------0-------|-
-|------------------------------1-------------------------------------------|-
  If it's an all night thing         nobody's gonna make it end               

-|--------------------------------------------------------------------------|-
-|------------------------1-------------------------0-------------3--0------|-
-|----------2-------------2-------------------------2-------------2--2------|-
-|----------0-------------3-------------------------2-------------0--2------|-
-|----------0-------------3-------------------------0----------------0------|-
-|------------------------1-------------------------------------------------|-
  And if it don't begin       don't worry that I'll take offense              

-|--------------------------------------------|-------------------------------
-|-----------------------------------1--------|-------------------------------
-|-----------------2-----------------2--------|-------------------------------
-|-----------------0-----------------3--------|-------------------------------
-|-----------------0-----------------3--------|-------------------------------
-|-----------------------------------1--------|-------------------------------
  Yeah  if it's an all night thing                                            

-|----------------------------------------------|-----------------------------
-|-------------------2--------------------------|-----------------------------
-|-------------------2--------------------------|-----------------------------
-|-------------------4--------------------------|-----------------------------
-|-------------------4--------------------------|-----------------------------
-|-------------------2--------------------------|-----------------------------
  And we fall like a tear falling to the ground                               

-|--------------------------------------------------------------------------|-
-|--------------------------------------------------------3----------3------|-
-|-4------------------------4-----------------------------2----------4------|-
-|-4------------------------2-----------------------------0----------5------|-
-|-2------------------------2-----------------------------0----------5------|-
-|--------------------------0----------------------------------------3------|-
   I'll never come around   you'll never hear a word from me                  

-|--------------------------------------------------------------------------|-
-|-----------0-----------------1-----3---------------0----------------1-----|-
-|-----------2-----------------2-----4---------------2----------------2-----|-
-|-----------2-----------------3-----5---------------2----------------3-----|-
-|-----------0-----------------3-----5---------------0----------------3-----|-
-|-----------------------------1-----3--------------------------------1-----|-
  If it's an all night thing         yeah if it's an all night thing          

-|--------------------------------------------------------------------------|-
-|-3--------------0----------------1---3---------------0----------------1---|-
-|-4--------------2----------------2---4---------------2----------------2---|-
-|-5--------------2----------------3---5---------------2----------------3---|-
-|-5--------------0----------------3---5---------------0----------------3---|-
-|-3-------------------------------1---3--------------------------------1---|-
   Ooh if it's an all night thing      yeah if it's an all night thing        

-|--------------------------|-------------------------------------------------
-|-3-----------2------------|-------------------------------------------------
-|-4-----------2------------|-------------------------------------------------
-|-5-----------4------------|-------------------------------------------------
-|-5-----------4------------|-------------------------------------------------
-|-3-----------2------------|-------------------------------------------------
   Mmmmm...                 End                                               



Important: The song above is NOT stored on the Chordie server. The original song is hosted at www.xguitar.com. Chordie works as a search engine and provides on-the-fly formatting. Chordie does not index songs against artists'/composers' will. To remove this song please click here.

This song is displayed as text-only. Transposing and tuning is only available for chordpro-songs.

Login - add to songbook

Rating click stars to rate

Layout
Accuracy

SHARE PAGE  




You need to log in to post comments