Chordie logo

John Doe    Testament



/ The following is the author's own interpretation of the song, to be used -
/ for studying or private use only, removal of any part of this ten line   -
/ header is illegal!!!  Removal of the transcribers name or anything       -
/ relevant to the transcriber is also illegal, as so is the removal of the -
/ place inwhich the tab was downloaded. Publishing as well as printing of  -
/ the tab is illegal without permission of the transcriber and copyright   -
/ owner of the song. Failure to apply to these laws result will in legal   -
/ action from the appropriate parties.                                     -



/join.htm

Author/Artist: Testament
Title: John Doe
Album: Demonic
Transcribed by: Nikhil Nair
Corrections by: God of War
Email: coolguitarist@hotmail.com

Legend:

... = palm mute
~   = let ring
v   = vibrato
p   = pull
h   = hammer on
  = artificial harmonic

***I KNOW YOUR NOT SUPPOSED TO DO THIS BUT OUT OF LAZYINESS IM JUST GONNA
CORRECT THE TAB AS IS SO HERE IT GOES, AND IF THERE IS A BIG PROBLEM WITH
THIS FROM ANYONE I CAN JUST REMAKE THE TAB BUT IM LAZY***

JOHN DOE from the album DEMONIC
-------------------------------
Tuning: drop 6th to D

intro
-|-------------------------|-----|------------------------|---------------
-|-------------------------|-----|------------------------|---------------
-|*-----------------------*|-----|------------------------|---------------
-|*-----------------------*|-x2--|------------------------|---------------
-|--0--1--2--3---5-6-3-----|-----|--0--1--2-2--3---5-6-3--|---------------
-|--0--1--2--3---5-6-3-----|-----|--0--1--2-2--3---5-6-3--|---------------
                 . . .                             . . .
2nd time accompany for above
-|--------------|--------------|------------------------------------------
-|--2---whammy--|--4---whammy--|------------------------------------------
-|--2---bar-----|--4---bar-----|------------------------------------------
-|--2---pull----|--4---pull----|------------------------------------------
-|------(slow)--|------(slow)--|------------------------------------------
-|--------------|--------------|------------------------------------------


-|-9-----9-----9-----9-----|-4---4---4---4---|-----------------|--------------
-|-12b14-12b14-12b14-12b14-|-7b9-7b9-7b9-7b9-|-4b6-4b6-4b6-4b6-|--------------
-|-------------------------|-----------------|-----------------|--------------
-|-------------------------|-----------------|-----------------|--------------
-|-------------------------|-----------------|-----------------|--------------
-|-------------------------|-----------------|-----------------|--------------


-|-------------------|--------------------------------------------------------
-|-------------------|--------------------------------------------------------
-|--9v-v-v--7--|--------------------------------------------------------
-|-------------------|--------------------------------------------------------
-|-------------------|--------------------------------------------------------
-|-------------------|--------------------------------------------------------

verse
-|------------|----|----------|------------|----|-------------|---------------
-|------------|----|----------|------------|----|-------------|---------------
-|*----------*|----|----------|*----------*|----|-------------|---------------
-|*----------*|-x3-|----------|*----------*|-x3-|-------------|---------------
-|------------|----|--4b5-4b5-|------------|----|-------------|---------------
-|-0--0-5-6-3-|----|----------|-0--0-5-6-3-|----|-v--v--|---------------
   .  . . . .                   .  . . . .


-|------------|----|-------|--------------------------------------------------
-|------------|----|-------|--------------------------------------------------
-|*----------*|----|-------|--------------------------------------------------
-|*----------*|-x3-|-3p2h3-|--------------------------------------------------
-|------------|----|-------|-0-3-0-5-6---0-3-3-0-6-5-3---0-3-0-5-6---3-3-0----
-|-0--0-5-6-3-|----|-------|-0-3-0-5-6---0-3-3-0-6-5-3---0-3-0-5-6---3-3-0----
   .  . . . .
-|-----------------------|-----------------------
-|-----------------------|-----------------------
-|-----------------------|-----------------------
-|-----------------------|-----------------------
-|--5-4-3~~~-------------|-----------------------


Important: The song above is NOT stored on the Chordie server. The original song is hosted at www.xguitar.com. Chordie works as a search engine and provides on-the-fly formatting. Chordie does not index songs against artists/composers will. To remove this song please click here.

This song is displayed as text-only. Transposing and tuning is only available for chordpro-songs.

Login - add to songbook

Rating click stars to rate

Layout
Accuracy

SHARE PAGE  

You need to log in to post comments