Chordie logo


D.N.R. (Do Not Resuscitate)    Testament



Key
= after note = vibrato
^ after note = heavy vibrato
\ = slide down
/ = slide up
+ = tap
h = hammer
p = pull
n = natural harmonic
s = pinching harmonic (squeal)
* = tremolo pick
t = trill
b = bend
|-3-| = triplet

n number above the tab = play the first part then the first finishing part
			 play the first part a second time and then play the second finishing part
			 etc.

Tune Down 1 1/2 Steps

Riff 1

C# -------------------------------------------------------------------------------
Ab -------------------------------------------------------------------------------
E  -9-----------------------------------------------------------------------------
B  -9-----------------8--------------------8---5----------------8-----------------
F# -7-------5h7-5h7---8----------5h7-5h7---8---5------5h7-5h7---8----77---8---5-7-
C# ---0-0-0---------0-6-0-0-00-0---------0-6-0-3-00-0---------0-6--0----0---0-----

Riff 1A

C# -----------------------------------
Ab -----------------6========^^^^^^^^^
E  -----------------------------------
B  -2---------------------------------
F# -2---------------------------------
C# -0---------------------------------

Riff 2

C# ----------------------------------------------------------------------
Ab ----------------------------------------------------------------------
E  ----------------------------------------------------------------------
B  ----------------------------------------------------------------------
F# -7-----7---7---7-8-8-8-5-5-5-5-7-7-----7---7---7-8-8-8-10-10-10-10-13-
C# ---0-0---0---0---------------------0-0---0---0------------------------

C# --------------------------------------------------------------------
Ab --------------------------------------------------------------------
E  -------------------------------------------------------10--------7--
B  -------------------------------------------------------10--------7--
F# -7-----7---7---7-8-8-8-5-5-5-5-7-7-----7---7---7-88-88-8 --55-55-5--
C# ---0-0---0---0---------------------0-0---0---0----------------------

Riff 2A

C# -----------------------------------------------------------------
Ab -----------------------------------------------------------------
E  -----------------------------------------------------------------
B  -5-----5---5---5-6-6-6-3-3-3-3-5-5-----5---5---5-6-6-6-8-8-8-5-8-
F# -----------------------------------------------------------------
C# ---0-0---0---0---------------------0-0---0---0-------------------

C# --------------------------------------------------------------------
Ab --------------------------------------------------------------------
E  -------------------------------------------------------10--------7--
B  -5-----5---5---5-6-6-6-3-3-3-3-5-5-----5---5---5-------10--------7--
F# -------------------------------------------------88-88-8 --55-55-5--
C# ---0-0---0---0---------------------0-0---0---0----------------------

Riff 3

C# ------------------------------------
Ab ------------------------------------
E  -10-9-10-9---9-8---9-8-10-9-9-8-----
B  -10-9-10-9---9-8---7-6-10-9-9-8-8-7-
F# -8 -7-8 -7---7-6-------8 -7-7-6-8-7-
C# -----------0-----0--------------6-5-

Riff 4

C# ------------------------------------------------------
Ab ------------------------------------------------------
E  ------------------------------------------------------
B  --------------------------------------5h6-5p0---------
F# -00-00-00-3-00-00-5h6p5-00-00-3-00-00---------5h6-5p0-
C# ------------------------------------------------------

Riff 5

C# ----------------------------------------------------------------------------------------------
Ab ----------------------------------------------------------------------------------------------
E  ----------------------------------------------------------------------------------------------
B  ----------------------------------------------------------------------------------------------
F# -77-77-77-77-77-77-77-77-77-77-77-77-77-77-7--88-88-88-88-88-88-88-88-88-88-88-88-88-88-88-88-
C# ----------------------------------------------------------------------------------------------

C# ----------------------------------------------------------------------------------------------
Ab ----------------------------------------------------------------------------------------------
E  ----------------------------------------------------------------------------------------------
B  ----------------------------------------------------------------------------------------------
F# -77-77-77-77-77-77-77-77-77-77-77-77-77-77-7--88-88-88-88-88-88-88-88-88-88-88-88-88-88-88-88-
C# ----------------------------------------------------------------------------------------------

Riff 5A

C# ----------------------------------------------------------------------------------------------
Ab ----------------------------------------------------------------------------------------------
E  -44-44-44-44-44-44-44-44-55-55-55-44-44-44-2--22-22-22-22-22-22-44-44-55-55-55-44-44-44-44-44-
B  ----------------------------------------------------------------------------------------------
F# ----------------------------------------------------------------------------------------------
C# ----------------------------------------------------------------------------------------------

C# ----------------------------------------------------------------------------------------------
Ab -------------------------------------------------------------------------------66-66-66-66-66-
E  -44-44-44-44-44-44-44-44-55-55-55-44-44-44-2--22-22-22-22-22-22-44-44-55-55-55----------------
B  ----------------------------------------------------------------------------------------------
F# ----------------------------------------------------------------------------------------------
C# ----------------------------------------------------------------------------------------------

Riff 5B

C# -----------------------------------------
Ab -----------------------------------------
E  -----------------------------------------
B  -----------------------------------------
F# -77-77-77-77-77-77-77-77-77-77-77--------
C# ----------------------------------s5-----

Riff 5D

C# -----------------------------------------
Ab -55-55-55-55-55-55-55-55-----------------
E  -----------------------------------------
B  -----------------------------------------
F# -------------------------77-77-77--------
C# ----------------------------------s5-----

Order

Riff 1 x 4
Riff 2/2A x 1
Riff 1 x 4
Riff 2/2A x 1
Riff 1 x 4
Riff 2/2A x 1
Riff 3 x 4
Riff 4 x 4
Riff 5/5A x 2
Riff 5B/5C x 1
Riff 1 x 4
Riff 2/2A x 1
Riff 3 x 4
Riff 1/1A x 1


Important: The song above is NOT stored on the Chordie server. The original song is hosted at www.xguitar.com. Chordie works as a search engine and provides on-the-fly formatting. Chordie does not index songs against artists/composers will. To remove this song please click here.

This song is displayed as text-only. Transposing and tuning is only available for chordpro-songs.

Login - add to songbook

Rating click stars to rate

Layout
Accuracy

SHARE PAGE  




You need to log in to post comments