Guitar Tabs, Chords and Lyrics


Alone in the Dark    Testament



Legend
------

 h  = hammer-on
 p  = pull-off
 b  = bend
 r  = bend release
 /  = slide up/down
 = natural harmonic
[5] = artifical harmonic
 ~  = vibrato
 tr = trill



   Intro rif Gtr.1                          At end of rif      Guitar solo 1

E|--------------------------------------||------------------*|---------
B|-------------------------------------*||------------------*|------12h
G|----------------------------5---------||--5---2--4--5-----*|--14-----
D|-2-----------------2--------3---------||--3---0--2--3-----*|---------
A|-0--------3--------0-----------------*||------------------*|---------
E|----------1---------------------------||------------------*|---------





E|----------------------------------------------------------------------
B|-13-12h13-12-----------12h13-12h13-12-----------15b17----15p13-12~----
G|-------------13h14-14-----------------13h14-14---------------------12-
D|----------------------------------------------------------------------
A|----------------------------------------------------------------------
E|----------------------------------------------------------------------





E|---------/17p12-------------------------------------------------------
B|----------------13p12-------------------------------------------------
G|----14~---------------14p12-------------------------------------------
D|-14-------------------------------------------------------------------
A|----------------------------12----------15-14-12----------------12-15-
E|-------------------------------15-13-12----------15-13-12-13-15-------





E|---------------------------------------------19b20--r-p17------------
B|-------------------20b22---20b22--r(21)b22---------------------------
G|----------------------------------------------------------19b20---19-
D|---------------------------------------------------------------------
A|-14-12---------------------------------------------------------------
E|-------15-12-13~-----------------------------------------------------





E|------------------------------------------12-13-15-15/17p13----17/19p
B|--------------15p12--------------------13-------------------13-------
G|--r17h19~-14~-------12-14~-14-12----14-------------------------------
D|---------------------------------15----------------------------------
A|---------------------------------------------------------------------
E|---------------------------------------------------------------------



                                             Gtr.1 starts Rhy. Fig. 2

E|-15----17-19-19b20----r-------------*|-||----------------------------
B|----15------------------18~---------*|-||*---------------------------
G|------------------------------------*|-||---------------------3------
D|------------------------------------*|-||---2--------2--------1---2--
A|------------------------------------*|-||*--0--0--0--0--0--0------0--
E|------------------------------------*|-||----------------------------



                                                Gtr2.comes in  Only before: Melodic fill, vocal, Guitar solo

E|--------------------------------------------------|-------||---------
B|--------------------------------------------------|------*||---------
G|--------------------------------------3-----------|-------||-3-------
D|-------2--------3---2--------2--------1---------2-|----5--||-1--2-x--
A|-0--0--0--0--0--1---0--0--0--0--0--0------0--0--0-|-3--3-*||----0-x--
E|--------------------------------------------------|-1-----||---------



                Melodic fill Gtr.2              Bridge

E|-----------*|------------------------------||--------------------*|-||--
B|-----------*|-----------------------------*||--------------------*|-||*-
G|-----------*|------------------------------||-3--5--7----5---5---*|-||--
D|-----5-----*|---/7~-6------5--------4---7--||-3--5--7----3---5---*|-||--
A|--3--3-----*|---------8-7~---8-6~-6---6-5-*||-1--3--5----3---3---*|-||*-
E|--1--------*|------------------------------||--------------------*|-||--



    Rhy. Fig. 3 (Gtr.1&2)                                             Gtr.1

E|------------------------------------------------------------------|---
B|------------------------------------------------------------------|---
G|------------------------------------------------------------------|---
D|-------------------------------------4---5------------------------|---
A|--4-----------5\4--------------------2p0-3--4-----------5\4-------|-3-
E|--2--2--2--2--3\2--2--2--2--2--2--2---------2--2--2--2--3\2--2--2-|---



                                       Gtr.2 before the Guitar solo

E|-------------||-------------5\---||--12\-------------------------------
B|-----------7\||---------4-7-----*||------------------------------------
G|-------5-8---||-----2-5----------||-------\9~-10-9-7-------------------
D|---4-7-------||-1-4--------------||------------------9--------------10-
A|-6-----------||-----------------*||---------------------10--7--8-7-----
E|-------------||------------------||------------------------------------



                                             Gtr.1 Gtr.1

E|----------------------------------------*|-||-------------------------
B|---------------13-10~-------------------*|-||*------------------------
G|----9-7--12-9---------------------------*|-||-------------------------
D|-7--------------------------------------*|-||-------------------------
A|----------------------------------------*|-||*--0--7-5-3--0--5-3-2--0-
E|----------------------------------------*|-||-------------------------



                          Rhy. Fig.4 (Gtr.2)

E|-----------------||-||-----------------------------------------------
B|----------------*||-||*----------------------------------------------
G|-----------------||-||-----------------------------------------------
D|--------2---2~---||-||---2-------------------------------------------
A|--2-3-5---3-----*||-||*--0--0--0--0--0--0--0--0--0--0--0--0--0--0--0-
E|-----------------||-||-----------------------------------------------





E|----------------------------------------------------------------------
B|----------------------------------------------------------------------
G|----------------------------------------------------------------------
D|-----------------------------------------------------2----------------
A|--0--3-----------------------------------------------0--0--0--0--0--0-
E|-----1--1--1--1--1--1--1--1--1--1--1--1--1--1--1--1-------------------





E|----------------------------------------------------------------------
B|----------------------------------------------------------------------
G|--------------------------------5--------5--------5-----5--------5----
D|--------------------------------3--3--3--3--3--3--3--3--3--3--3--3--3-
A|--0--0--0--0--0--0--0--0--0--0----------------------------------------
E|----------------------------------------------------------------------



                 Rhy. Fig. 5 (Gtr.1)

E|--------*|-||--------------------------------------------------------
B|--------*|-||*-------------------------------------------------------
G|-----5--*|-||---------------------------5--------5--------5-----4----
D|--3--3--*|-||---2--------2--------2-----3--3--3--3--3--3--3--3--2----
A|--------*|-||*--0--0--0--0--0--0--0--0--------------------------2--2-
E|--------*|-||--------------------------------------------------------



                                                             Guitar solo 2

E|--------------------------------------------------------||--12p13-12-
B|-------------------------------------------------------*||-----------
G|----------------------2---------------------------------||-----------
D|-----2/3---2/3--0--0--0-----5---------------------------||-----------
A|--2--2/3-2-2/3-----------3--3--------------------------*||-----------
E|-------------------------1------------------------------||-----------





E|-10-12---13p12-10------------------------------------------------------
B|------------------13p12-10----12p10-8-10p8-----------------------------
G|---------------------------9~--------------10-12p10-9-10p9-------------
D|-----------------------------------------------------------12-10h12-10\
A|-----------------------------------------------------------------------
E|-----------------------------------------------------------------------





E|--------------------------------------------------------12p10-8-10-8-
B|----------------------------------13-12h13-12----12------------------
G|-----------------------9-10-12-14-------------14----14~--------------
D|-9h10-9--------9-10-12-----------------------------------------------
A|--------12~-12-------------------------------------------------------
E|---------------------------------------------------------------------





E|----8----------------------------------------------------------------
B|-12---12p10-12p10-8--------------------------------------------------
G|--------------------10p9-7----7-9~-7b9--r---7~-9-10p9-7-9p7----------
D|---------------------------10------------10-----------------10~-9-10-
A|---------------------------------------------------------------------
E|---------------------------------------------------------------------





E|---------7-8p7----7-8-10-8h12-8----------------15--------------------
B|---------------10---------------10-------/15b2----15~-13\12----12----
G|----9------------------------------9------------------------14----12~
D|-12---12-----------------------------7~------------------------------
A|---------------------------------------------------------------------
E|---------------------------------------------------------------------
                           sweep pick




E|--12-12-12-13-13-13-15-15-15-17-17-17-19-19-19-20-20-20-----------*|-
B|--------------------------------------------------------20b22-----*|-
G|------------------------------------------------------------------*|-
D|------------------------------------------------------------------*|-
A|------------------------------------------------------------------*|-
E|------------------------------------------------------------------*|-



   Bridge 2 Rhy. Fig. 6 (Gtr.1)

E|-----*|--------------------------------------------------------------
B|-----*|--------------------------------------------------------------
G|-----*|--------------------------------------------------------------
D|-----*|--------------------------------------------------------------
A|-3-2-*|-3--5----7----3--5----7----3--5----7----3--5----2-------------
E|-1-0-*|-1--3--3-5----1--3--3-5----1--3--3-5----1--3--3-0-------------





E|--*|--------------------------------------12h17--12-------------------
B|--*|--20b22---r-18-17--18-15-13--------13-----------13----------------
G|--*|----------------------------14--14--------------------------------
D|--*|---------------------------------------------------15-14-12-14----
A|--*|---------------------------------------------------------------15-
E|--*|------------------------------------------------------------------
                                      Rake


                                                                Gtr.1 end

E|----------------------------------------------------------*|----------
B|----------------------------------12-13-15-15/17----(17)--*|----------
G|----------------------------12-14-------------------------*|----------
D|-12----------------12-14-15-------------------------------*|--2-------
A|----14-15-12-14-15----------------------------------------*|--0--0--0-
E|----------------------------------------------------------*|----------



                         Gtr.2 end

E|-------------------*|----------------------------------------*|-
B|-------------------*|----------------------------------------*|-
G|-----------3-------*|----------------------------------------*|-
D|--2--------1--2-x--*|--7--6----------------------------------*|-
A|--0--0--0-----0-x--*|-------8-7--5--------4---7-x------------*|-


Important: The song above is NOT stored on the Chordie server. The original song is hosted at www.xguitar.com. Chordie works as a search engine and provides on-the-fly formatting. Chordie does not index songs against artists/composers will. To remove this song please click here.

This song is displayed as text-only. Transposing and tuning is only available for chordpro-songs.

Login - add to songbook

Rating click stars to rate

Layout
Accuracy

SHARE PAGE  




You need to log in to post comments