Guitar Tabs, Chords and Lyrics


Apocalyptic City    Testament



TESTAMENT - APOCALYPTIC CITY
(The Legacy, 1987)

Key
= after note = vibrato
^ after note = heavy vibrato
\ = slide down
/ = slide up
+ = tap
h = hammer
p = pull
n = natural harmonic
s = pinching harmonic (squeal)
* = tremolo pick
t = trill
b = bend
|-3-| = triplet

n number above the tab = play the first part then the first finishing part
			 play the first part a second time and then play the second finishing part
			 etc.

Riff 1

E -3-2-----3-2-----3-2-----3-2-----1-0-----1-0-----1-0------1-0------
B -------------------------------------------------------------------
G -----4-------4-------4-------4-------2-------2--------2--------2---
D -------2-------2-------2-------2-------0-------0--------0--------0-
A -------------------------------------------------------------------
E -------------------------------------------------------------------

Riff 1A

E ------19b20-19---------------------------------17b18-17----------------------------
B -----------------17b18-17---------------------------------15b16-15-----------------
G ----------------------------16b17-16---------------------------------14b15-14------
D -14------------------------------------14-12------------------------------------12-
A -----------------------------------------------------------------------------------
E -----------------------------------------------------------------------------------

Riff 2

E ---------------------------------------------------------------------------------------------------------------
B ---------------------------------------------------------------------------------------------------------------
G ----------------------5--4--3------3------3------3---------------------------5--4--3------3------3------3------
D -2------2------2------5--4--3------3------3------3------2------2------2------5--4--3------3------3------3------
A -2------2------2------3--2--1--1-1-1--1-1-1--1-1-1--1-1-2------2------2------3--2--1--1-1-1--1-1-1--1-1-1--1-1-
E -0--0-0-0--0-0-0--0-0-----------------------------------0--0-0-0--0-0-0--0-0-----------------------------------

Riff 2A

E ------------------------------------------------------------------------------
B ------------------------------------------------------------------------------
G -13--------9----12----7----------------13--------9----16----15----------------
D ------------------------------------------------------------------------------
A -11--------7----10----5----------------11--------7----14----13----------------
E ------------------------------------------------------------------------------

Riff 2B

E -------------------------------------------------------------------------
B -------------------------------------------------------------------------
G ----------5----4----3-------------------------5----4----3----------------
D -2--------5----4----3----------------2--------5----4----3----------------
A -2--------3----2----1----------------2--------3----2----1----------------
E -0-----------------------------------0-----------------------------------

Riff 2C

E ------------------------------------------------------------------------------
B ------------------------------------------------------------------------------
G ----------5----4----3-------------------------5----4----3---------------------
D -2--------5----4----3----------------2--------5----4----3----3----2----3----2-
A -2--------3----2----1----------------2--------3----2----1----3----2----3----2-
E -0-----------------------------------0-----------------------1----0----1----0-

Riff 2D

E -------------------------------------------------------------------------------------
B -------------------------------------------------------------------------------------
G -13--------9----12----7----------------13--------9----16----15----10----9----10----9-
D -------------------------------------------------------------------------------------
A -11--------7----10----5----------------11--------7----14----13----8 ----7----8 ----7-
E -------------------------------------------------------------------------------------

Riff 3

E -----------------------------------------------------------------------
B -----------------------------------------------------------------------
G -2----------------------------------2----------------------------------
D -2----------------------7---6-------2----------------------2---1-------
A -0-00-0-00-0-00-00-00-0---0---0-8---0-00-0-00-0-00-00-00-0---0---0-3---
E -----------------------------------------------------------------------

Riff 3A

E -------------------------------------------------------------------------
B -------------------------------------------------------------------------
G -2-----------------------------------2-----------------------------------
D -2----------------------7---6---s7---2----------------------2---1---s2---
A -0-00-0-00-0-00-00-00-0---0---0------0-00-0-00-0-00-00-00-0---0---0------
E -------------------------------------------------------------------------

Riff 4

E ---------------------------------------------------------
B ---------------------------------------------------------
G -2----5-4----5------5-4--5--2----5-4----3----------------
D -2----5-4----5------5-4--5--2----5-4----3----------------
A -0--0-3-2--0-3--0-0-3-2--3--0--0-3-2--0-1--1-1-1-1-1-1-1-
E ---------------------------------------------------------

Riff 4A

E -------------------------------------------
B -------------------------------------------
G -2----5-4----5------5-4--5--2----5-4----3--
D -2----5-4----5------5-4--5--2----5-4----3--
A -0--0-3-2--0-3--0-0-3-2--3--0--0-3-2--0-1--
E -------------------------------------------

Riff 5

E ------------------------------------------------------------------
B ---------------------------------3-----------------------------3--
G ---------------------------------3-----------------------------3--
D ---------------------------------3-----------------------------3--
A ---------------------------------1-----------------------------1--
E -3-0-00-0-1-0-00-0-3-0-00-0-00-0----3-0-00-0-1-0-00-0-3-0-00-0----

Riff 5A

E -------------------------------------------------------------------------
B -------------------------------------------------------------------------
G -------------------------------------------------------------------------
D ----------------------------2-----6-----------------------------2-----3--
A ----------------------------2-----6-----------------------------2-----3--
E -30-0-00-0-10-0-00-0-30-0-0-0-0-0-4--30-0-00-0-10-0-00-0-30-0-0-0-0-0-1--

Riff 6

E ---------------------------------------------------------
B ---------------------------------------------------------
G ----------------------10--9--8------8------8------8------
D -7------7------7------10--9--8------8------8------8------
A -7------7------7------8 --7--6--6-6-6--6-6-6--6-6-6--6-6-
E -5--5-5-5--5-5-5--5-5------------------------------------

Riff 6A

E -----------------------------------------------------------------------------
B -----------------------------------------------------------------------------
G ----------------------------------10--9--8------------8--9-------------------
D -7------------7--9--10------------10--9--8------------8--9--7----------------
A -7------------7--9--10------------8 --7--6------------6--7--7----------------
E -5------------5--7--8 --------------------------------------5----------------

Riff 7

E --------------------------------------------
B --------------------------------------------
G --------------------------------------------
D -2------2------2------8--5--2------2------2-
A -2------2------2------8--5--2------2------2-
E -0--0-0-0--0-0-0--0-0-6--3--0--0-0-0--0-0-0-

Riff 8

E ----------------------------------------------------------------------------------------
B ----------------------------------------------------------------------------------------
G -5--------7--------9------------------5--------7--------9------9-10---9---9---9-9-11-9--
D --------------------------------------5--------7----------------------------------------
A -3--------5--------7--------------1-2-3--------5--------7------7-8 ---7---7---7-7-9 -7--
E -----------------------------------------------------------0-0------0---0---0-----------

E ------------------------------------------------------------------------
B ------------------------------------------------------------------------
G -5--------7----------------------------------------5--------7-----------
D -5--------7----------------------------------------5--------7-----------
A -3--------5--------7------------5-7---10-7---7-5-4-3--------5----10\----
E ----------------------0-0-3-6-0-----0------0----------------------------

Order

Riff 1 x 1
Riff 1/1A x 2
Riff 2 x 1
Riff 2/2A x 2
Riff 3/3A x 2
Riff 4 x 1
Riff 4A x 1
Riff 3/3A x 4
Riff 4 x 2
Riff 5 x 2
Riff 3/3A x 4
Riff 4 x 2
Riff 5 x 2
Solo over Riff 6 x 2
Solo over Riff 6A x 2
Solo over Riff 7 x 4
Solo over Riff 6A x 2
Solo over Riff 8 x 1
Riff 2 x 1
Riff 2/2A x 2
Riff 3/3A x 4
Riff 4 x 2
Riff 5 x 2
Riff 5A x 2
Riff 2 x 1
Riff 2A/2B x 1
Riff 2C/2D x 1



Important: The song above is NOT stored on the Chordie server. The original song is hosted at www.xguitar.com. Chordie works as a search engine and provides on-the-fly formatting. Chordie does not index songs against artists'/composers' will. To remove this song please click here.

This song is displayed as text-only. Transposing and tuning is only available for chordpro-songs.

Login - add to songbook

Rating click stars to rate

Layout
Accuracy

SHARE PAGE  




You need to log in to post comments