Guitar Tabs, Chords and Lyrics


Raging Waters    Testament



Repeat when necessary
palm muting on single notes

intro
|---------------------------------|
|---------------------------------|
|---------------------------------|
|-9-------9---------10---10-7-9---|
|-7-7-5-5-7---7-5-5-8----8--5-7---|
|-0-------------------------------|

Riff until ("the triangle!")

|-----------------------------------------------------|
|-----------------------------------------------------|
|-----------------------------------------------------|
|-9----------------------------------9---------9-10---|
|-7-777-777-777-777-777-8-7-10-8-7-8-7-777-777-7-8----|
|-----------------------------------------------------|

|------------------------------|
|------------------------------|
|------------------------------|
|-9---9-7-9-9-----10----7---9--|
|-7---7-5-7-7------8----5---7--|
|------------------------------|
      . . .

(the triangle bit)
|-----------------------------|
|-----------------------------|
|-----------------------------|
|-----------------------------|
|-4---------------------------|
|-2-22-222-22-222-555-333-555-|



Important: The song above is NOT stored on the Chordie server. The original song is hosted at www.xguitar.com. Chordie works as a search engine and provides on-the-fly formatting. Chordie does not index songs against artists'/composers' will. To remove this song please click here.

This song is displayed as text-only. Transposing and tuning is only available for chordpro-songs.

Login - add to songbook

Rating click stars to rate

Layout
Accuracy

SHARE PAGE  




You need to log in to post comments