Guitar Tabs, Chords and Lyrics


Legions (In Hiding)    Testament



All metal distortion throughout, Guitar downtunned 1 step

   Repeat ending with :            1)          2)
E-|---------------------------|-------------|-------------|
B-|---------------------------|-------------|-------------|
G-|---------------------------|-------------|-------------|
D-|-------------------2--2--2-|-------------|-------------|
A-|-----2--2--2-------2--2--2-|-------------|-5-5-5-5-5-5-|
E-|-000-0--0--0---0-1-0--0--0-|-1-1-1-1-1-1-|-3-3-3-3-3-3-|
    ... .  .  .   . .           . . . . . .   . . . . . .

   Repeat ending with :                  1) 3)   2) 4)   end (after 4th time)
E-|---------------------------------|-------|-------|-----------------------------------------------|
B-|---------------------------------|-------|-------|---------12----12-12-12-12-12-12-12-12-12-12\--|
G-|---------------------------------|-------|-------|---------12----12-12-12-12-12-12-12-12-12-12\--|
D-|----4-3------------------4-3-----|-------|-------|-2-------12----12-12-12-12-12-12-12-12-12-12\--|
A-|----2-1-----3-2----------2-1---3-|-3-----|-------|-2---------------------------------------------|
E-|-0-------0--1p0--0-0-0-0-----0-1-|-1-----|-sl/3--|-0---------------------------------------------|
    .       .       . . . .


   Repeat ending with :          1) 2) 3)           4)
E-|----------------------------|------------------|------------------------------|
B-|----------------------------|-----------(5/8)~-|------------------------------|
G-|-------(4/7)-----(4/7)------|-(4/7)(7/4)-------|------------------------------|
D-|----------------------------|------------2/3~~-|--2---------------------------|
A-|--------2/5-------2/5-------|--2/5--5\2--------|----5-3-5-3-2-3-2-------------|
E-|-0-0-0------0-0-0-----0-0-0-|------------------|------------------5-----------|
    . . .      . . .     . . .      .                . . . . . . . . .



Important: The song above is NOT stored on the Chordie server. The original song is hosted at www.xguitar.com. Chordie works as a search engine and provides on-the-fly formatting. Chordie does not index songs against artists'/composers' will. To remove this song please click here.

This song is displayed as text-only. Transposing and tuning is only available for chordpro-songs.

Login - add to songbook

Rating click stars to rate

Layout
Accuracy

SHARE PAGE  




You need to log in to post comments