Guitar Tabs, Chords and Lyrics


One Man's Fate    Testament



├Ćntro (bass & guitar)

  Lead should be at zero volume when hitting the D,
  and rise during the second bar.
-\ 1 + 2 + 3 + 4 + 1 + 2 + 3 + 4 + 1 + 2 + 3 + 4 + 1 + 2 + 3 + 4 +
G|-----------------------------------------------------------------|
D|-----------------------------------------------------------------|
A|-----------------------------------------------------------------|
E|-0-0-0-0-0-0-0-0-0-0-0-0-0-0-0-0-0-0-0-0-0-0-0-0-0-0-0-0-0-0-0-0-|
|                                                                 |
E|-----------------------------------------------------------------|
B|-----------------------------------------------------------------|
G|-----------------------------------------------------------------|
D|-----------------------------------------------------------------|
A|-------------------------------------------------5---------------|
E|-----------------------------------------------------------------|
-\ 1 + 2 + 3 + 4 + 1 + 2 + 3 + 4 + 1 + 2 + 3 + 4 + 1 + 2 + 3
G|-----------------------------------------------------------|
D|-----------------------------------------------------------|
A|-----------------------------------------------------------|
E|-0-0-0-0-0-0-0-0-0-0-0-0-0-0-0-0-0-0-0-0-0-0-0-0-0-0-0-0-0-|
|                                                           |
E|-----------------------------------------------------------|
B|-----------------------------------------------------------|
G|-----------------------------------------------------------|
D|-----------------------------------------------------------|
A|-(5)~~~~~~~~~~~~~~~~~~~~~~~~~~~~~~~~~~~~~~~~~~~~~~~~~~~~~~~|
E|-----------------------------------------------------------|

   2x                      A.H (Higher notes 2nd gtr)
-\ + 4 + 1 + 2 + 3 + 4 + 1 + 2 + 3 + 4 + 1 + 2 + 3 + 4 + 1 + 2 + 3
E|-----------------------------------------------------------------|
B|-----------------------------------------------------------------|
G|-----4-3---------------------------------------------------------|
D|-3-6-6-5-------8---7---6-------------6-5-------8---7-----10------|
A|-5-8---------10--9---8---7-7-----5-8---------10--9---7-8---------|
E|---------0-0-----------------0-0---------0-0---------------0-0-0-|
           . .                 . .         . .
   Interlude                      A.H
-\ + 4 + 1 + 2 + 3 + 4 + 1 + 2 + 3 + 4 + 1 + 2 + 3 + 4 + 1 + 2 + 3
E|-----------------------------------------------------------------|
B|-----------------------------------------------------------------|
G|-----------------------------------------------------------------|
D|-------------------8---7-----------------------------------------|
A|---5---7---------10--9-----------5-----7---------2-----5\4-5\4-5-|
E|-7---7---0-000-0---------0-000-0-----0---0-000-0-0h3p0-6\5-6\5-6-|
PM .       . ... . .   .   . ... .     .   . ... .
-\ + 4 + 1 + 2 + 3 + 4 + 1 + 2 + 3 + 4 + 1 + 2 + 3 + 4 + 1 + 2 + 3 + 4 +
E|-----------------------------------------------------------------------|
B|-----------------------------------------------------------------------|
G|-----------------------------------------------------------------------|
D|-------------------8---7-----------------------------------------------|
A|-----7-----------10--9-----------5-----7-----------5---7-6-5-----------|
E|-0-0---0-0-000-0---------0-000-0-----0---0-000-0-0---0-------6-5-3-5p3-|
PM . .   . . ... .         . ... .     .   . ... . .       . . . . .
-\ 1 + 2 + 3 + 4 +
E|-----------------|
B|-----------------|
G|-----------------|
D|-1-2-1---1-------|
A|-2-3-2-4-2-4-2-1-|
E|-------5---5-3-2-|

   Verse Riff
-\ 1 + 2 + 3 + 4 + 1 + 2 + 3 + 4 + 1 + 2 + 3 + 4 + 1 + 2 + 3 + 4 +
E|-----------------------------------------------------------------|
B|-----------------------------------------------------------------|
G|-----------------------------------------------------------------|
D|-2-----2---2---------------------2-----2-------------------------|
A|-2-----2---2-----2/4-2---2/4-2---2-----2-----2/4-2---7---7/8-7---|
E|---0-0---0---0-0-3/5-3-0-3/5-3-0---0-0---0-0-3/5-0-0-5-0-5/6-5---|
PM   . .   .   . .       .       .   . .   . .       .   .
-\ 1 + 2 + 3 + 4 + 1 + 2 + 3 + 4 + 1 + 2 + 3 + 4 + 1 + 2 + 3 + 4 +
E|-----------------------------------------------------------------|
B|-----------------------------------------------------------------|
G|-----------------------------------------------------------------|
D|-2-----2---2---------------------2-----2-------------------------|
A|-2-----2---2-----2/4-2---2/4-2---2-----2-----2/4-2---------------|
E|---0-0---0---0-0-3/5-3-0-3/5-3-0---0-0---0-0-3/5-0---------------|
PM   . .   .   . .       .       .   . .   . .
-\ 1 + 2 + 3 + 4 + 1 + 2 + 3 + 4 + 1 + 2 + 3 + 4 + 1 + 2 + 3 + 4 +
E|-----------------------------------------------------------------|
B|-----------------------------------------------------------------|
G|-----------------------------------------------------------------|
D|-2-----2---2---------------------2-----2-------------------------|
A|-2-----2---2-----2/4-2---2/4-2---2-----2-----2/4-2---7---7/8-7---|
E|---0-0---0---0-0-3/5-3-0-3/5-3-0---0-0---0-0-3/5-0-0-5-0-5/6-5---|
PM   . .   .   . .       .       .   . .   . .       .   .
-\ 1 + 2 + 3 + 4 + 1 + 2 + 3 + 4 + 1 + 2 + 3 + 4 + 1 + 2 + 3 + 4 +
E|-----------------------------------------------------------------|
B|-----------------------------------------------------------------|
G|-----------------------------------------------------------------|
D|-2-----2---2---------------------2-----2-------------------------|
A|-2-----2---2-----2/4-2---2/4-2---2-----2-----2/4-----8\7-7\5-5/7-|
E|---0-0---0---0-0-3/5-3-0-3/5-3-0---0-0---0-0-3/5-6-6-6\5-5\3-3/5-|
PM   . .   .   . .       .       .   . .   . .     . .
-\ 1 + 2 + 3 + 4 + 1 + 2 + 3 + 4 + 1 + 2 + 3 + 4 + 1 + 2 + 3 + 4 +
E|-----------------------------------------------------------------|
B|-----------------------------------------------------------------|
G|-----------------------------------------------------------------|
D|-2-----2---2---------------------2-----2-------------------------|
A|-2-----2---2-----2/4-2---2/4-2---2-----2-----2/4-2---7---7/8-7---|
E|---0-0---0---0-0-3/5-3-0-3/5-3-0---0-0---0-0-3/5-0-0-5-0-5/6-5---|
PM   . .   .   . .       .       .   . .   . .       .   .
-\ 1 + 2 + 3 + 4 + 1 + 2 + 3 + 4 + 1 + 2 + 3 + 4 + 1 + 2 + 3 + 4 +
E|-----------------------------------------------------------------|
B|-----------------------------------------------------------------|
G|-----------------------------------------------------------------|
D|-2-----2---2---------------------2-----2-------------------------|
A|-2-----2---2-----2-/-4---2-/-4---2-----2-----2/4-2-------2-2-2-2-|
E|---0-0---0---0-0-3-/-5-0-3-/-5-0---0-0---0-0-3/5-0-------0-0-0-0-|
PM   . .   .   . .       .       .   . .   . .             . . . .

   First Chorus
-\ 1 + 2 + 3 + 4 + 1 + 2 + 3 + 4 + 1 + 2 + 3 + 4 + 1 + 2 + 3 + 4 +
E|-----------------------------------------------------------------|
B|-----------------------------------------------------------------|
G|-----------------------------------------------------------------|
D|-----------------------------------------------------------------|
A|-4-----------4---4/5-4---2-2---2-5-----------5---5/7-5---2-2-2-2-|
E|-2-----------2---2/3-2---0-0---0-3-----------3---3/5-3---0-0-0-0-|
PM                         . .   .                         . . . .
-\ 1 + 2 + 3 + 4 + 1 + 2 + 3 + 4 + 1 + 2 + 3 + 4 + 1 + 2 + 3 + 4 +
E|-----------------------------------------------------------------|
B|-----------------------------------------------------------------|
G|-----------------------------------------------------------------|
D|-----------------------------------------------------------------|
A|-4-----------4---4/5-4---2-2---2-5-----------5---7-------5-5-5-5-|
E|-2-----------2---2/3-2---0-0---0-3-----------3---5-------3-3-3-3-|
PM                         . .   .                         . . . .

Verse Riff 1x

   Second Chorus
-\ 1 + 2 + 3 + 4 + 1 + 2 + 3 + 4 + 1 + 2 + 3 + 4 + 1 + 2 + 3 + 4 +
E|-----------------------------------------------------------------|
B|-----------------------------------------------------------------|
G|-----------------------------------------------------------------|
D|-----------------------------------------------------------------|
A|-4-----------4---4/5-4---2-2---2-5-----------5---5/7-5---2-2-2-2-|
E|-2-----------2---2/3-2---0-0---0-3-----------3---3/5-3---0-0-0-0-|
PM                         . .   .                         . . . .
-\ 1 + 2 + 3 + 4 + 1 + 2 + 3 + 4 + 1 + 2 + 3 + 4 + 1 + 2 + 3 + 4 +
E|-----------------------------------------------------------------|
B|-----------------------------------------------------------------|
G|-----------------------------------------------------------------|
D|-----------------------------------------------------------------|
A|-4-----------4---4/5-4---2-2---2-5-----------5-------------------|
E|-2-----------2---2/3-2---0-0---0-3-----------3---3/5-3---3/5-3---|
PM                         . .   .
-\ 1 + 2 + 3 + 4 + 1 + 2 + 3 + 4 + 1 + 2 + 3 + 4 + 1 + 2 + 3 + 4 +
E|-----------------------------------------------------------------|
B|-----------------------------------------------------------------|
G|-----------------------------------------------------------------|
D|-----------------------------------------------------------------|
A|-2-----5\4-----------------------2-----5\4-----------------------|
E|-0-0-0-3\2-0-0-3/5---3---3/5---3-0-0-0-3\2-0-0-3/5---3---3/5---3-|
PM   . .     . .                     . .     . .
-\ 1 + 2 + 3 + 4 + 1 + 2 + 3 + 4 + 1 + 2 + 3 + 4 + 1 + 2 + 3 + 4 +
E|-----------------------------------------------------------------|
B|-----------------------------------------------------------------|
G|-----------------------------------------------------------------|
D|-----------------------------------------------3-----------------|
A|-2-----5\4-----------------------2-----5\4-----1-----------------|
E|-0-0-0-3\2-0-0-3/5---3---3/5---3-0-0-0-3\2-0-0-------------------|
|   . .     . .                     . .     . .                   |
E|-----------------------------------------------------------------|
B|-----------------------------------------------------------------|
G|-----------------------------------------------------------------|
D|-----------------------------------------------------------------|
A|-2-----5\4-----------------------2-----5\4-----8-----8\7-7\5-5/7-|
E|-0-0-0-3\2-0-0-3/5---3---3/5---3-0-0-0-3\2-0-0-6---6-6\5-5\3-3/5-|
PM   . .     . .                     . .     . .     .
   Solo Rhytm
-\ 1 + 2 + 3 + 4 + 1 + 2 + 3 + 4 + 1 + 2 + 3 + 4 + 1 + 2 + 3 + 4 +
E|-----------------------------------------------------------------|
B|-----------------------------------------------------------------|
G|-----------------------------------------------------------------|
D|-----------------------------------------------------------------|
A|-----8\7-----5/7-----5-------5-------8\7-----5/7-----5---7\5-5/7-|
E|-00006\5-00003/5-00003-0000003-0000006\5-00003/5-00003-0-5\3-3/5-|
PM ....    ....    ....  ......  ......    ....    ....  .
-\ 1 + 2 + 3 + 4 + 1 + 2 + 3 + 4 + 1 + 2 + 3 + 4 +
E|-------------------------------------------------|
B|-------------------------------------------------|
G|-------------------------------------------------|
D|-------------------------------------------------|
A|-----8\7-----5/7-----5-------5-------8\7-----5/7-|
E|-00006\5-00003/5-00003-0000003-0000006\5-00003/5-|
PM ....    ....    ....  ......  ......    ....
-\ 1 + 2 + 3 + 4 + 1 + 2 + 3 + 4 + 1 + 2 + 3 + 4 + 1 + 2 + 3 + 4 +
E|-----------------------------------------------------------------|
B|-----------------------------------------------------------------|
G|-----------------------------------------------------------------|
D|-----------------------------------------------------------------|
A|-2---------5-7-8---6-5-----------2---------5-7-8-----8\7-7\5-5/7-|
E|-0-0-0-0-0-3-5-6-0-----6-5-3-5-3-0-0-000-0-3-5-6-6-6-6\5-5\3-3/5-|
PM   . . . .       .
-\ 1 + 2 + 3 + 4 + 1 + 2 + 3 + 4 + 1 + 2 + 3 + 4 + 1 + 2 + 3 + 4 +
E|-----------------------------------------------------------------|
B|-----------------------------------------------------------------|
G|-----------------------------------------------------------------|
D|-----------------------------------------------------------------|
A|-2---------5-7-8---6-5-------------------------------------------|
E|-0-0-0-0-0-3-5-6-0-----6-5-3-5-3-000-000-000-3-5-----6-5-----3-5-|
PM   . . . .       .               ... ... ... . .     . .
-\ 1 + 2 + 3 + 4 + 1 + 2 + 3 + 4 + 1 + 2 + 3 + 4 + 1 + 2 + 3 + 4 +
E|-----------------------------------------------------------------|
B|-----------------------------------------------------------------|
G|-----------------------------------------------------------------|
D|-----------------------------------------------------------------|
A|-2-------------------------------2---------------------------5-7-|
E|-0-----------3-5-----6-5-----3-5-0---000-000-3-5-000-6-5-000-3-5-|
PM . .         . .     . .   . .     ... ... . . ... . . ...
   3x                                End with:
-\ 1 + 2 + 3 + 4 + 1 + 2 + 3 + 4 +   1 + 2 + 3 + 4 + 1 + 2 + 3 + 4 +
E|---------------------------------|---------------------------------|
B|---------------------------------|---------------------------------|
G|---------------------------------|---------------------------------|
D|---------------------------------|---------------------------------|
A|-2---------5-7-8-----8\7-7\5-5/7-|---------------------------------|
E|-0-0-000-0-3-5-6-6-6-6\5-5\3-3/5-|-000-000-000-3-5-----6-5-----3-5-|
PM   . ... .       . .               ... ... ... . .     . .
   2x (only this bar)
-\ 1 + 2 + 3 + 4 + 1 + 2 + 3 + 4 + 1 + 2 + 3 + 4 + 1 + 2 + 3 + 4 +
E|-----------------------------------------------------------------|
B|-----------------------------------------------------------------|
G|-----------------------------------------------------------------|
D|-----------------------------------------------------------------|
A|-2-----5\4-----------------------2-----5\4-----------------------|
E|-0-0-0-3\2-0-0-3/5---3---3/5---3-0-0-0-3\2-0-0-3/5---3---3/5---3-|
PM   . .     . .                     . .     . .
-\ 1 + 2 + 3 + 4 + 1 + 2 + 3 + 4 + 1 + 2 + 3 + 4 + 1 + 2 + 3 + 4 +
E|-----------------------------------------------------------------|
B|-----------------------------------------------------------------|
G|-----------------------------------------------------------------|
D|-----------------------------------------------------------------|
A|-4-------4-----------------------4-------4-----------------------|
E|-2-2---2-2-2-2-5/7---5---5/7---5-2-222-2-2-2-2-5/7---5---5/7---5-|
PM   .   .   . .                     ... .   . .
-\ 1 + 2 + 3 + 4 + 1 + 2 + 3 + 4 + 1 + 2 + 3 + 4 + 1 + 2 + 3 + 4 +
E|-----------------------------------------------------------------|
B|-----------------------------------------------------------------|
G|-----------------------------------------------------------------|
D|-----------------------------------------------------------------|
A|-2-----5\4-----------------------2-----5\4-----------------------|
E|-0-0-0-3\2-0-0-3/5---3---3/5---3-0-0-0-3\2-0-0-3/5---3---3/5---3-|
PM   . .     . .                     . .     . .
-\ 1 + 2 + 3 + 4 + 1 + 2 + 3 + 4 + 1 + 2 + 3 + 4 + 1 + 2 + 3 + 4 +
E|-----------------------------------------------------------------|
B|-----------------------------------------------------------------|
G|-----------------------------------------------------------------|
D|-----------------------------------------------------------------|
A|-2-----5\4-----------------------2-----5\4---------------2-2-2-2-|
E|-0-0-0-3\2-0-0-3/5---3---3/5---3-0-0-0-3\2-0-0-3/5---3---0-0-0-0-|
PM   . .     . .                     . .     . .           . . . .

First Chorus (with solo)

Verse Riff

Second Chorus

   Ending (* = same volume shit as in the intro)
-\ 1 + 2 + 3 + 4 + 1 + 2 + 3 + 4 + 1 + 2 + 3 + 4 + 1 + 2 + 3 + 4 +
E|-----------------------------------------------------------------|
B|-----------------------------------------------------------------|
G|-----------------------------------------------------------------|
D|-----------------------------------------------------------------|
A|-----8\7-----5/7-2----------------------------------5*-----------|
E|-00006\5-00003/5-0-----------------------------------------------|
PM ....    ....
-\ 1 + 2 + 3 + 4 + 1 + 2 + 3 + 4 + 1 + 2 + 3 + 4 + 1 + 2 + 3 + 4 +
E|-----------------------------------------------------------------|
B|-----------------------------------------------------------------|
G|-----------------------------------------------------------------|
D|-----------------------------------------------------------------|
A|-(5)~~~~~~~~~~~~~~~~~~~~~~~~~~~~~~~~~~~~~~~~~~~~~~~~~~~~~~~~~~~~~|
E|-----------------------------------------------------------------|
|                                                                 |
E|-----------------------------------------------------------------|
B|---------------------------------(no-distoration)----------------|
G|-----------------------------------------------------------------|
D|---------------------------------8-------6-----------------------|
A|-------------------------------------------------8-------5-------|
E|-----------------------------------------------------------------|
-\ 1 + 2 + 3 + 4 + 1 + 2 + 3 + 4 + 1 + 2 + 3 + 4 + 1 + 2 + 3 + 4 +
E|-----------------------------------------------------------------|
B|-----------------------------------------------------------------|
G|-----------------------------------------------------------------|
D|----------------/5------------------------------/9---------------|
A|/(7)-----7--------------/7--------------/7--------------/7-------|
E|-----------------------------------------------------------------|
|                                                                 |
E|-----------------------------------------------------------------|
B|-----------------------------------------------------------------|
G|----------------/4------------------------------/7---------------|
D|---------5--------------/5--------------/9--------------/9-------|
A|-----------------------------------------------------------------|
E|-----------------------------------------------------------------|
-\ 1 + 2 + 3 + 4 + 1 + 2 + 3 + 4 + 1 + 2 + 3 + 4 + 1 + 2 + 3 + 4 +
E|-----------------------------------------------------------------|
B|-----------------------------------------------------------------|
G|-----------------------------------------------------------------|
D|-----------------------------------------------------------------|
A|-----------------------------------------------------------------|
E|-6~~~~~~~~~~~~~~~~~~~~~~~~~~~~~~~~~~~~~~~~~~~~~~~~~~~~~~~~~~~~~--|
|                                                                 |
E|-----------------------------------------------------------------|
B|-----------------------------------------------------------------|
G|-----------------------------------------------------------------|
D|-----------------------------------------------------------------|
A|-5~~~~~~~~~~~~~~~~~~~~~~~~~~~~~~-5~~~~~~~~~~~~~--8~~~~~~~~~~~~~--|
E|-----------------------------------------------------------------|
-\ 1 + 2 + 3 + 4 + 1 + 2 + 3 + 4 + 1 + 2 + 3 + 4 + 1 + 2 + 3 + 4 +
E|-----------------------------------------------------------------|
B|-----------------------------------------------------------------|
G|-----------------------------------------------------------------|
D|-----------------------------------------------------------------|
A|-2-----------------------------------------------5*--------------|
E|-0-----------------------------------------------6*--------------|
|                                                                 |
E|-----------------------------------------------------------------|
B|-----------------------------------------------------------------|
G|-------------(Skolncik-messing-around-with-the-guitar)-----------|
D|-----------------------------------------------------------------|
A|-----------------------------------------------------------------|
E|-----------------------------------------------------------------|
-\ 1 + 2 + 3 + 4 + 1 + 2 + 3 + 4 + 1 + 2 + 3 + 4 + 1 + 2 + 3 + 4 +
E|-----------------------------------------------------------------|
B|-----------------------------------------------------------------|
G|-----------------------------------------------------------------|
D|-----------------------------------------------------------------|
A|-(5)-------------------------------------------------------------|
E|-(6)~~~~~~~~~~~~~~~~~~~~~~~~~~~~~~~~~~~~~~~~~~~~~~~~~~~~~~~~~~~--|
|                                                                 |
E|-----------------------------------------------------------------|
B|-----------------------------------------------------------------|
G|-----------------2---------------5---------------3---------------|
D|/3---------------------------------------------------------------|
A|-----------------------------------------------------------------|
E|-----------------------------------------------------------------|
-\ 1 + 2 + 3 + 4 + 1 + 2 + 3 + 4 + 1 + 2 + 3 + 4 + 1 + 2 + 3 + 4 +
E|-----------------------------------------------------------------|
B|-----------------------------------------------------------------|
G|-----------------------------------------------------------------|
D|----------------/5------------------------------/9---------------|
A|/(7)-----7--------------/7--------------/7--------------/7-------|
E|-----------------------------------------------------------------|
|                                                                 |
E|-----------------------------------------------------------------|
B|-----------------------------------------------------------------|
G|----------------/4------------------------------/7---------------|
D|---------5--------------/5--------------/9--------------/9-------|
A|-----------------------------------------------------------------|
E|-----------------------------------------------------------------|
-\ 1 + 2 + 3 + 4 + 1 + 2 + 3 + 4 + 1 + 2 + 3 + 4 + 1 + 2 + 3 + 4 +
E|-----------------------------------------------------------------|
B|-----------------------------------------------------------------|
G|-----------------------------------------------------------------|
D|---A.H-----------------------------------------------------------|
A|-1~~~~~~~~~~~~~~~~~~~~~~~~~~~~~~~~~~~~~~~~~~~~~~~~~~~~~~~~~~~~~--|
E|-----------------------------------------------------------------|
|                                                                 |
E|-----------------------------------------------------------------|
B|-----------------------------------------------------------------|
G|-----------------------------------------------------------------|
D|-----------------------------------------------------------------|
A|-5~~~~~~~~~~~~~~~~~~~~~~~~~~~~~~-5~~~~~~~~~~~~~--8~~~~~~~~~~~~~--|
E|-----------------------------------------------------------------|



Important: The song above is NOT stored on the Chordie server. The original song is hosted at www.xguitar.com. Chordie works as a search engine and provides on-the-fly formatting. Chordie does not index songs against artists/composers will. To remove this song please click here.

This song is displayed as text-only. Transposing and tuning is only available for chordpro-songs.

Login - add to songbook

Rating click stars to rate

Layout
Accuracy

SHARE PAGE  




You need to log in to post comments