Guitar Tabs, Chords and Lyrics


Adrienne   Calling



Intro Solo:
|-----------------------------------------------|
|-\\8-----------------------\\8----------8-10br-8-|
|----77~---7h9~-7-------------77~-77h9----------|
|--------9--------5h7~-55~----------------------|
|-----------------------------------------------|
|-----------------------------------------------|

Verses: (Strums Palm Muted) played twice
Intro and refrain

  e------3------------2-------------0------------(3)-----------(3)------------------
  B------3------------3-------------3-------------3-------------3-------------------
  G------0------------2-------------2-------------0-------------2-------------------
  D------2------------0-------------0-------------2-------------0-------------------
  A------2------------0-------------0-------------3-------------0-------------------
  E------0------------0-------------2-------------0-------------0-------------------

           Em7            D                 ?              Cadd9         Dsus2



pre chorus:
|----0-----0----0--2-2-3-----0-----0----0--2-2-2-3-3-3-2--|
|----1-----1----1--3-3-3-----1-----1----1--3-3-3-3-3-3-3--|
|----0-----0----0--2-2-2-----0-----0----0--2-2-2-2-2-2-2--|
|--2-2---0-0--2-2--0-0-0---2-2---0-0--2-2--0-0-0-0-0-0-0--|
|-0-----2----3------------0-----2----3--------------------|
|---------------------------------------------------------|

Chorus: see intro riff x2

2nd small solo:
|--------------------------|
|-\\8-----------------------|
|----77~-------------------|
|--------------------7b----|
|---------------7b---------|
|--------------------------|

Verse - prechorus - 2nd chorus

electric solo:
|----------------------------------------------------------------|
|----------------------------------------------------------------|
|-5-\\7-\\9-\\11-5-\\7-\\9-\\11-12-/11-/9-/7-/5-/4-12-/11-/9-/7-/5-\\14-|
|----------------------------------------------------------------|
|-3-\\5-\\7-\\9--3-\\5-\\7-\\9--10-/9--/7-/5-/3-/2-10-/9--/7-/5-/3-\\12-|
|----------------------------------------------------------------|

pre chorus - 3rd chorus (longer)
chorus ends with:
|-3-3-| drums goes on |-3-3-3-|
|-3-3-|      and      |-3-3-3-|
|-0-0-|     just      |-0-0-0-|
|-2-2-|    before     |-2-2-2-|
|-2-2-|  the outro    |-2-2-2-|
|-0-0-|    solo       |-0-0-0-|
Outro solo:
|--------------------15------------------|
|-15bb-------a15-15bb--------------------|
|------14brbr----------14brb-14-14-12-12-|
|----------------------------14-14-14----|
|----------------------------------------|
|----------------------------------------|

|----------------------------------------|
|-------------------------15---15--------|
|-------12~------12-12-14b--14b--r14-12--| fade
|-12h14-----12h14------------------------|
|----------------------------------------|


Important: The song above is NOT stored on the Chordie server. The original song is hosted at www.xguitar.com. Chordie works as a search engine and provides on-the-fly formatting. Chordie does not index songs against artists'/composers' will. To remove this song please click here.

This song is displayed as text-only. Transposing and tuning is only available for chordpro-songs.

Login - add to songbook

Rating click stars to rate

Layout
Accuracy

SHARE PAGE  




You need to log in to post comments