Chordie logo


Final Answer  Calling

       ---3-----x--------0-------3-------0-------0-----


	 ---3-----3--------3-------3-------1-------3-----


	 ---0-----2--------0-------0-------2-------2----

---0-----0--------2-------2-------2-------0----
---x-----x--------2-------3-------0-------2-----
---3-----2--------0-----------------------------
Eb --10----10--------10--------10-10-10----------------------------------------
Bb --10----10--------10--------10-10-10--------X 4-----------------------------
Gb --12---------12-------12----12-12-12----------------------------------------
Db ---0----------0------- 0-----0--0--0----------------------------------------
Eb ---------10-10------10------10-10-----10-10----10------10--10-------10-------
Bb ---------10-10------10------10-10------8--8-----8-------8---8-------10-------
Gb ---------11-----11------11--11-11------9-----9------9---9---9-------12------
Db ----------0------0-------0---0--0------0-----0------0---0---0--------0-------
Locked A[G5]way, so I can feel safe
G5/F# E5 G5 (stop)
Now that Im down on my knees, begging for change.
Look down at the wa[G5]ter, before I jump in
To find i was [G5/F#]sinnnnnnking [E5]fast, in all that might have [G5]been.

*****Other verse, played the same, except last vese before solo. just play intro.*****

Chorus:

[G]   What I [D5/F#]need now is an[Em7] honest answer, to[Cadd9] make things better.
[G]   You can[D5/F#] see now my [Em7]hands are tied, and[Cadd9] I surrender.
[G]   So I'll[D5/F#] wait here for your [Em7]Final Answer,
   Yeah, your[Cadd9] Final Answer.

Middle:

[Am]  Remeber t[D5/F#]he night you[G] wore that dr[Em7]ess
[Am]  It flowed through our[D5/F#] lips, drink after dr[G]ink
  And k[Em7]iss after kiss
[Am]     Im still holdin[D5/F#]g on, day after[Bm7] day
  Dont run [Cadd9]away

Solo:

Eb  ----------------------------------------------------------------------------
Bb  --10 bu (12)- ~ -(12)-10 ~ ------8-10-8---8 ~ --7-7 ~ ----------------8 ~ --
Gb ---------------------------------------------------------9 ~ 9 / 11 ~ -------
Db -----------------------------------------------------------------------------
Ab -----------------------------------------------------------------------------
Eb -----------------------------------------------------------------------------
Eb  ----------------------------------------------------------------------------
Bb  ---------------------------------------------------------8-10 bu (12)-(12)~~
Gb --7-5-4--------5 / 7-5-4-------------------4 / 7--9-11-----------------------
Db ---------7-5 ~ -----------7-5---5-5-4-5-7------------------------------------
Ab -----------------------------------------------------------------------------
Eb -----------------------------------------------------------------------------


Important: The song above is NOT stored on the Chordie server. The original song is hosted at www.xguitar.com. Chordie works as a search engine and provides on-the-fly formatting. Chordie does not index songs against artists/composers will. To remove this song please click here.

Text color:
Chord color:
Chord grids: 
Font size:    
Page size: 

Am Bm7 Cadd9 D5/F# E5 Em7 G G5 G5/F#
variations - click chord images

Login - add to songbook

Transpose chords

Tuning

Rating click stars to rate

Layout
Accuracy

SHARE PAGE  




You need to log in to post comments