Guitar Tabs, Chords and Lyrics


Stigmatized   Calling



Song: Stigmatized
Band: The Calling
Album: Camino Palmero
Transcribed by: Patrick P. Barbieto

Tuning (Guitar 1):
E-G-D-G-B-E

Tuning (Guitar 2):
Standard Tuning

Key:
~ = let it ring

Intro:(2x)

Guitar 1
    E|--------------------------|
    B|--------------------------|
    G|--4---2-------6---7-------|
    D|--0---0-------0---0-------|
    G|--0---0-------0---0-------|
    E|--3---3-(2x)--5---7-(2x)--|

Guitar 2
    E|-10--9-------10---9-----------------------------------------------------|
    B|--------10-----------10----12--10---10--------10-----------10-----------|
    G|----------------------------------9----9-9h11----11-9-9h11----9-9h11----|
    D|------------------------------------------------------------------------|
    A|------------------------------------------------------------------------|
    E|------------------------------------------------------------------------|

Verse: (Guitar 1) - (2x)
    E|--------------------------|
    B|--------------------------|
    G|--4---2-------6---7-------|
    D|--0---0-------0---0-------|
    G|--0---0-------0---0-------|
    E|--3---3-(2x)--5---7-(2x)--|
	If I give up on you I give up on me. . .


Chorus 1: (Guitar 1)
    E|------------------------|
    B|------------------------|
    G|--12--11--9--7--6-------|
    D|--0---0---0--0--0-------|
    G|--0---0---0--0--0-------|
    E|--12--10--9--7--5-------|
	Tease me, by holding out your hand. . .

Guitar 1
    E|--------------------------|
    B|--------------------------|
    G|--4---2-------6---7-------|
    D|--0---0-------0---0-------|
    G|--0---0-------0---0-------|
    E|--3---3-(2x)--5---7-(2x)--|
	And live our lives, stigmatized. . .

Guitar 2
    E|-10--9-------10---9--------------------------------------|
    B|--------10-----------10----12--10---10--------10---------|
    G|----------------------------------9----9-9h11----9-9h11--|
    D|---------------------------------------------------------|
    A|---------------------------------------------------------|
    E|---------------------------------------------------------|

Repeat Verse Riff

Chorus 2: (Guitar 1)

    E|------------------------|
    B|------------------------|
    G|--12--11--9--7--6-------|
    D|--0---0---0--0--0-------|
    G|--0---0---0--0--0-------|
    E|--12--10--9--7--5-------|
	Tease me, by holding out your hand. . .


    E|--------------------------|
    B|--------------------------|
    G|--4---2-------6-6-6-------|
    D|--0---0-------0-0-0-------|
    G|--0---0-------0-0-0-------|
    E|--3---3-(2x)--5-5-5-------|
	And live our lives, stigmatized. . .

    E|-----------------|
    B|-----------------|
    G|--4-4-4---2-2-2--|
    D|--0-0-0---0-0-0--|
    G|--0-0-0---0-0-0--|
    E|--3-3-3---3-3-3--|
	We live our lives on different sides. . .

    E|--------------------|
    B|--------------------|
    G|-6-6-6-6---7-7-7-7--|
    D|-0-0-0-0---0-0-0-0--|
    G|-0-0-0-0---0-0-0-0--|
    E|-5-5-5-5---7-7-7-7--|
	But we keep together you and I. . .

    E|-----------------------|
    B|-----------------------|
    G|--4-4--2-2---6-~~~-----|
    D|--0-0--0-0---0-~~~-----|
    G|--0-0--0-0---0-~~~-----|
    E|--3-3--3-3---5-~~~-----|
	Just live our lives, stigmatized. . .

Breakdown: (Guitar 1) - (2x)

    E|--------------------------------------------------|
    B|--------------------------------------------------|
    G|---2-2-4-4------6-6-7-7-6----2-2-2-4-----6-6-7-6--|
    D|---0-0-0-0------0-0-0-0-0----0-0-0-0-----0-0-0-0--|
    G|---0-0-0-0------0-0-0-0-0----0-0-0-0-----0-0-0-0--|
    E|---2-2-3-3------5-5-7-7-5----2-2-2-3-----5-5-7-5--|

Then: (Guitar 1)

    E|------------------------|
    B|------------------------|
    G|--12--11--9--7--6-------|
    D|--0---0---0--0--0-------|
    G|--0---0---0--0--0-------|
    E|--12--10--9--7--5-------|(2x)
	We'll live our lives, We'll take the punches everyday. . .

Breakdown: (Same as above, Guitar 1) - (2x)

Little fill:(listen for the timing, Guitar 2)
    E|--------------------------------------------------|
    B|----15--14--12-------15--14--12-------------------|
    G|----------------14---------------14---------------|
    D|--------------------------------------------------|
    A|--------------------------------------------------|
    E|--------------------------------------------------|

Outro: (Guitar 1)

    E|-----------------------------------|
    B|-----------------------------------|
    G|---4-2-4-2---------6--6-6----------|
    D|---0-0-0-0---------0--0-0----------|
    G|---0-0-0-0---------0--0-0----------|
    E|---3-3-3-3---------5--5-5----------|
         ***. . . 	  Ohhh. . .Stigmatized. . .

    E|-----------------------------------------------------------------|
    B|-----------------------------------------------------------------|
    G|---4-2-4-2------------------------------6-6-6---7-7-7------------|
    D|---0-0-0-0------------------------------0-0-0---0-0-0------------|
    G|---0-0-0-0------------------------------0-0-0---0-0-0------------|
    E|---3-3-3-3------------------------------5-5-5---7-7-7------------|(x3)
	We live our lives on different sides. . . But we keep together you and I. . .
	We live our lives on different sides. . . Aaaahhh. . .
	We gotta live our lives Gotta live our lives. . .Were gonna live our lives. . .
	We're gonna live our lives Gonna live our lives. . .

    E|-----------------|
    B|-----------------|
    G|---4-4-----2-2---|
    D|---0-0-----0-0---|
    G|---0-0-----0-0---|
    E|---3-3-----2-2---|
	Gonna live our lives. . .

Then finish with... (Guitar 2)

    E|------------------------|
    B|---------3--------------|
    G|---------2-----7--~-----|
    D|--2---0--0-----0--~-----|
    A|--2---2--0-----x--~-----|
    E|--0---3--0-----7--~-----|
		     Stigmatized. . .

Lyrics:

If I give up on you I give up on me
If we fight what's true, will we ever be
Even God himself and the faith I knew
Shouldn't hold me back, shouldn't keep me from you

Tease me, by holding out your hand
Then leave me, or take me as i am
And live our lives, stigmatized

I can feel the blood rushing though my veins
When i hear your voice, driving me insane
Hour after hour day after day
Every lonely night that i sit and pray

Tease me, by holding out your hand
Then leave me, or take me as I am
And live our lives, stigmatized

We live our lives on different sides,
But we keep together you and I
Just live our lives, stigmatized

We'll live our lives, We'll take the punches everyday
We'll live our lives I know we're gonna find our way

I believe in you
Even if no one understands
I believe in you, and i don't really give a ***
If we're stigmatized
We live our lives on different sides
But we keep together you and I
We live our lives on different sides

We gotta live our lives
Gotta live our lives
Were gonna live our lives
We're gonna live our lives, Gonna live our lives,


Important: The song above is NOT stored on the Chordie server. The original song is hosted at www.xguitar.com. Chordie works as a search engine and provides on-the-fly formatting. Chordie does not index songs against artists'/composers' will. To remove this song please click here.

This song is displayed as text-only. Transposing and tuning is only available for chordpro-songs.

Login - add to songbook

Rating click stars to rate

Layout
Accuracy

SHARE PAGE  




You need to log in to post comments

junevaldez (report)

Why no chords here?