Guitar Tabs, Chords and Lyrics


Daffodil Lament   Cranberries



DAFFODIL LAMENT
By D. O'Riordan

PART ONE

Verse Riff:
G-------3-----|-------3-----|-------3-----|-------3-----|
D-----5---5---|-----5---5---|-----3---3---|-----3---3---|
A---5-------5-|---5-------5-|---5-------5-|---3-------3-|
E-3-----------|-3-----------|-6-----------|-1-----------|

Measures in Verse Riff are occasionaly replaced by:
G---------3-------|
D-------5---5-----|
A-----5-------3h5-|
E-(_)-------------|

Chord Progression:
|Gm|Gm|Bb|F|

Chorus Riff:
D-5-5-5-3-3-3-|-1-1-1-------|----------|-----|
A-------------|-------5-5-5-|-3-3-3-5--|-(5)-|

Words:
Holding on
That's what I do since I met you
And it won't be long
Whould you notice if I left you
And in spite for some
Cause you're not the one
You're not the one
There

All night long
I laid on my pillow
These things are wrong
I can't sleep here

So lonely, so lonely
TRANSITION

Chord: Gm

Riff:
D-----5-------|
A---5---5-3h5-|
E-3-----------|
PART TWO

Verse Riff:
E---6-----5---|---3-----------|
B-6---6-6---6-|-6---6-6p4-3-4-|

Chord Progression:
|Bb|F|Gm|F|

Fill:
A-10-|-8-|-6-|-5-|

End On: Bb

Words:
I have decided to leave you forever
I have decided to start things from new
Thunder and lightning won't change what I'm feeling
And the daffodils look lovely today
Look lovely today

Oh in your eyes I can see the disguise
Oh in your eyes I can see the dismay
Has anyone seen lightning
Has anyone looked lovely

And the daffodils look lovely today

Look lovely


Important: The song above is NOT stored on the Chordie server. The original song is hosted at www.xguitar.com. Chordie works as a search engine and provides on-the-fly formatting. Chordie does not index songs against artists'/composers' will. To remove this song please click here.

This song is displayed as text-only. Transposing and tuning is only available for chordpro-songs.

Login - add to songbook

Rating click stars to rate

Layout
Accuracy

SHARE PAGE  




You need to log in to post comments