Guitar Tabs, Chords and Lyrics


Analyse   Cranberries



The Cranberries
Song: Analyse.
Album: WUASTC-2001
Tabbed by: Pedro J. Rangel R. (Maracaibo - Venezuela)
Satanophonic@uole.com

Key: standard tuning all guitars.

There're more than two guitars in the songs the last is the less important.

G1: electric with clean sound.
G2: electric with light distortion.
G3: electric with light distortion.

Riff 1
e-------------------------------------||
b-------------------------------------||
g-------------------------------------||
d--4h6-4-2----------------------------||
a-------4-----------------------------||
e-------------------------------------||

    E   A  F#m  E
e---0---5---2---0-------------------------||
b---0---5---2---0-------------------------||
g---1---6---2---1-------------------------||
d---2---7---4---2-------------------------||
a---2---7---4---2-------------------------||
e-------5---2-----------------------------||

Riff 2

     *     **    ***
e-------------------------------------||
b--0--0---6--6--2--2-0---0-------------||
g---1------7-----2----1---------------||
d----2------7-----4----2--------------||
a-------------------------------------||
e-------------------------------------||

Bridge
  x2     x2            x2
e-2--0---0--2---2-4-5--5--0-------------------------||
b-2--0---0--2---2-4-5--5--0-------------------------||
g-2--1---1--2---2-4-6--6--1-------------------------||
d-4--2---2--4---4-6-7--7--2-------------------------||
a-4--2---2--4---4-6-7--7--2-------------------------||
e-2------2--2---4-5-5------------------------||

Riff 3
e-------------------------------------||
b-------------------------------------||
g----9~~~-----------------------------||
d-------------------------------------||
a-------------------------------------||
e-------------------------------------||

Form:

Intro:
- G1 :Riff 1 +  G2: E repeated fast
- G1: Riff 1 +  G2: A repeated fast
- The same as first
- The same as second
Verse:
Part 1:
- G1: E , A , F#m , E
Part 2:
- G1: E , A , F#m , E

Pre chorus: Part 3
- G1: E , riff 2 * , A , riff 2 ** , F#m , riff 2 ***, E , riff 2 *. Repeated two times.

Chorus:
- G2: E , A , F#m , E + riff 3 through the whole chorus

Bridge.

Verse. Part 1 , Part 3.

Chorus.
Chorus + riff 1
Chorus + riff 1+ riff 2 *
Chorus + riff 1+ riff 2 **
Chorus + riff 1+ riff 2 ***
E , F#m , E end.

G1: plays riff 1; riff 2 * , ** , ***; E, A, F#m.
G2: plays E, A, F#m.
G3: riff 3.

Enjoy it.
Please vote for this tab.


Important: The song above is NOT stored on the Chordie server. The original song is hosted at www.xguitar.com. Chordie works as a search engine and provides on-the-fly formatting. Chordie does not index songs against artists'/composers' will. To remove this song please click here.

This song is displayed as text-only. Transposing and tuning is only available for chordpro-songs.

Login - add to songbook

Rating click stars to rate

Layout
Accuracy

SHARE PAGE  




You need to log in to post comments