Guitar Tabs, Chords and Lyrics


The End of the World  Cure

e|-----------------------------|-------------------------------|


B|-----------------------------|-------------------------------|


G|-----------------------------|-------------------------------|

D|--2--0-2-0----------2-0-0----|--5--3-5-3-2---------5--3-3-2--|
A|-----------3--0-3-0-------3--|--------------5-5--3-----------|
E|-----------------------------|-------------------------------|
[C5]Go if you [A5]want to / I [F5]never try to [G5]stop you
[C5]know there's a [A5]reason / For [F5]all of this you're [G5]feeling
[C5]low It's not [A5]my call / You [F5]couldn't ever [G5]love me [D5]more
You [F5]couldn't love me [D5]more
You [F5]couldn't love...
[C5]Me...I don't [A5]show much / It's [F5]not that hard to [G5]hide you
[C5]see in a [A5]moment / I [F5]cant remember [G5]how to
[C5]be all you [A5]wanted / I [F5]couldn't ever [G5]love you [D5]more
I [F5]couldn't love you [D5]more
I [F5]couldn't love...
[G5]You want me to [A5]cry and play my part
[G5]I want you to [A5]sigh and fall apart
[G5]We want this like [A5]every[A5]one e[A5]lse
[C5]Stay if you[A5] want to / I [F5]always wait to [G5]hear you
[C5]say there's a [A5]last kiss / For [F5]all the times you [G5]run this
[C5]way it's not [A5]my fault / You [F5]couldn't ever [G5]love me [D5]more
You [F5]couldn't love me [D]more
You [F5]couldn't [C5]loooo[D5]ooooo[E5]ooo..[F5]love me [C5]more
[C5]      [D5]      [E5]     [F5]                    
[C5]Ooh  o[D5]oh    [E5]I couldnÂ’t ever [F5]love you [D]more
I [F5]couldn't love you [D]more
I [F5]couldn't love...
[G5]You want me to [A5]lie not break your heart
[G5]I want you to [A5]fly not stop and start
[G5]We want us like [A5]every[A5]thing [A5]else
[Bb]Ooo-eee-[F5]ooo...
[Bb]Ooo-eee-[F5]ooo.. [E5]Maybe we didn't [F5]understand
[E5]Not just a boy and a [F5]girl
[E5]It's just the end of the [F5]end of the [F5]world...
[C5]Me... I don't [A5]say much / It's [F5]far too hard to [G5]make you
[C5]see in a [A5]moment / I [F5]still forget just [G5]how to
[C5]be all you [A5]wanted / I [F5]couldn't ever [G5]love you [D]more
I [F5]couldn't love you [D]more
I [F5]couldn't love you [D]more
I [F5]couldn't love you [D]more
I [F5]couldn't love you [D]more
The Cure - The End of the World
Tabbed by: DimmuBorgirRocks666
Tuning: Standard
Key:
pm--| = Palm Mute
* = Approx. Amount of Times


Verse (I don\\'t think the guitar comes in until the second verse)

pm-------|     pm-----|    pm----|
e|-------------------------------------------
B|-------------------------------------------
G|-------------------------------------------
D|-9-9-9-9--9--11111111-11-7-7-7-7--7--------
A|-9-9-9-9--9--11111111-11-7-7-7-7--7--------
E|-7-7-7-7--7--9-9-9-9--9--5-5-5-5--5-------- x5*
pm------|
e|-------------------------------------------
B|-------------------------------------------
G|-------------------------------------------
D|-2--2-2--5---------------------------------
A|-2--2-2--5---------------------------------
E|-0--0-0--3---------------------------------


Chorus

pm-------|     pm-----|    pm----|
e|-------------------------------------------
B|-------------------------------------------
G|-------------------------------------------
D|-9-9-9-9--9--11111111-11-7-7-7-7--7--------
A|-9-9-9-9--9--11111111-11-7-7-7-7--7--------
E|-7-7-7-7--7--9-9-9-9--9--5-5-5-5--5-------- x3*
pm--------------------|
e|-------------------------------------------
B|-------------------------------------------
G|-------------------------------------------
D|-7-7--9-9--9-9--11-11----------------------
A|-7-7--9-9--9-9--11-11----------------------
E|-5-5--7-7--7-7--9--9-----------------------



I have no idea how right or wrong this is because
they have so much other crap in the song it\\'s hard to hear the guitar, if it\\'s
even there. Also this is only my second tab. Corrections are welcomed.

Important: The song above is NOT stored on the Chordie server. The original song is hosted at www.xguitar.com. Chordie works as a search engine and provides on-the-fly formatting. Chordie does not index songs against artists'/composers' will. To remove this song please click here.

Text color:
Chord color:
Chord grids: 
Font size:    
Page size: 

A5 Bb C5 D D5 E5 F5 G5
variations - click chord images

Login - add to songbook

Transpose chords

Tuning

Rating click stars to rate

Layout
Accuracy

SHARE PAGE  




You need to log in to post comments