Guitar Tabs, Chords and Lyrics


Secrets  Cure

E ------------------------------------------------------------------


B ------------------------------------------------------------------


G ------------------0-2---------------------------------------------


D 0---4-2-0---0-2-4-----4-2-0-------0-------------------------------


A --2-------4-------------------------4-3-2-------------------------


E ----------------------------3-2-0---------------------------------

[Bm]Secrets shared with a-[G]nother girl
[Bm]All night, everything's[G] quiet now
[Bm]I wish I was yours, I [G]wish I was yours
(lead 1)
[Bm]Strangers, nobody [G]knows we love
[Bm]I catch your eyes one the [G]dark
One [Bm]look relives the [G]memory
Re[Bm]member me the way I [G]used to be
(lead 1)
(lead 2)
E ------------------------------------------------------------------
B ------------------------------------------------------------------
G ---------------------------------------0-2-4-----2-4--------------
D -------0-4-2-0---0-2-------------0-2-4-------4-4-----4-2-0-0-0----
A -2-2-4---------4-----4-2-0---2-4-------------------------------4-2
E ---------------------------3--------------------------------------
E ------------------------------------------------------------------
B ------------------------------------------------------------------
G -----------0-2-4--------------------------------------------------
D -----0-2-4-------4-2-0--------------------------------------------
A -2-4-------------------4-2-0-2------------------------------------
E ------------------------------------------------------------------


Important: The song above is NOT stored on the Chordie server. The original song is hosted at www.xguitar.com. Chordie works as a search engine and provides on-the-fly formatting. Chordie does not index songs against artists'/composers' will. To remove this song please click here.

Text color:
Chord color:
Chord grids: 
Font size:    
Page size: 

Bm G
variations - click chord images

Login - add to songbook

Transpose chords

Tuning

Rating click stars to rate

Layout
Accuracy

Jango Player

SHARE PAGE  




You need to log in to post comments