Guitar Tabs, Chords and Lyrics


In Between Days  Cure

e|----------------|------------|---------------|-------------


B|----------------|------------|---------------|-------------


G|----------------|------------|---------------|-6--6--6-6-6-


D|--7--7--7-7-7-7-|-6----------|-7--7--7-7-7-9-|-0--0--0-0-0-


A|--0--0--0-0-0-0-|-0-7--7-7-7-|-0--0--0-0-0-0-|-------------


E|----------------|---0--0-0-0-|---------------|-------------


e|----------------|------------|--------------|----------------


B|----------------|------------|--------------|----------------


G|----------------|------7-7-7-|-7------7-7-7-| 7--------------


D|--7--7--7-7-7-7-|-6----0-0-0-|-0-7-7--0-0-0-|-0-7-7-6--------


A|--0--0--0-0-0-0-|-0--7-------|---0-0--------|---0-0-0-7------


E|----------------|----0-------|--------------|---------0------


e--------------------------|----------------------------


B--------------------------|----------------------------


G--6-6--6-6--6-6--6-7--7-6-|-6-6-6-6-6-6-6-6--6---------


D--------------------------|--------------------7-7-----


A--------------------------|----------------------------


E--------------------------|----------------------------


e-----------------------------------------------------------


B-----------------------------------------------------------


G--6-6-6------------------------6-6-6-----------------------


D--------9-------------------7--------9---------------------


A----------9--7--9--9--7--9-------------9--7--9--9--7--9----


E-----------------------------------------------------------


e--7--9----7--9----7--9----12--10----7--9----7--9----7--9----5--5-- repeat


B------------------------------------------------------------------


G------------------------------------------------------------------


D------------------------------------------------------------------


A------------------------------------------------------------------


E------------------------------------------------------------------

[A]Yesterday I [Dsus2]got so old
I [A]felt like I could [Dsus2]die
Yesterday I got so old
It made me want to cry
Go on go on
Just walk away
Your choice is made
Go on go on
And disappear
Go on go on
Away from here
And I [Bm]know I was wrong
When I [E/B]said it was true
That it [Bm]couldn't be me
and be [E/B]her inbetween
without [A]yo[Asus2]u[A] [Asus2] [Dmaj7] [Dmaj7sus2] [Dsus2]
Without [A]yo[Asus2]u[A] [Asus2] [Dmaj7] [D5] [D5]
....
A: x0222x Asus2: x0220x Dmaj7: xx022x Dmaj7sus2: xx0220
Dsus2: xx0230 D5: xx02xx Bm: x2443x E/B: x2210x D7: xx020x

Important: The song above is NOT stored on the Chordie server. The original song is hosted at www.xguitar.com. Chordie works as a search engine and provides on-the-fly formatting. Chordie does not index songs against artists'/composers' will. To remove this song please click here.

Text color:
Chord color:
Chord grids: 
Font size:    
Page size: 

A Asus2 Bm D5 Dmaj7 Dmaj7sus2 Dsus2 E/B
variations - click chord images

Login - add to songbook

Transpose chords

Tuning

Rating click stars to rate

Layout
Accuracy

SHARE PAGE  




You need to log in to post comments