Guitar Tabs, Chords and Lyrics


Let's Go To Bed   Cure



The Cure (Staring at the Sea - the Singles)

LET'S GO TO BED - tabbed by Brian Wicked S.
Back Up Vocal Arranged For Guitar 
(Played On Keyboard Live) 
"Doo Doo Doo Doo"
E:-----1-3------1--------1-3-------- 
B:-1-4------1-4---1--1-4------1-4-3- 
G:---------------------------------- 
D:---------------------------------- 
A:---------------------------------- 
E:---------------------------------- 
        Or you can play this an octave higher: 

E:-------13-15--------13-----------13-15----------- 
B:-13-16--------13-16----13--13-16--------13-16-15- 
G:------------------------------------------------- 
D:------------------------------------------------- 
A:------------------------------------------------- 
E:------------------------------------------------- 

=============================== 
Bass 

Riff 1 
(Main Riff)

G:-----5---------8---------10----3p-0---- 
D:------------------------------------1-- 
A:-3-3---3-3-6-6---6-6-8-8-----1--------- 
E:--------------------------------------- 

Riff 2 
"but I don't care if you don't"

G:-----10---------10---------12-------------12---- 
D:------------------------------------------------ 
A:-8-8----8-8-8-8----8-10-10----10-10-10-10----10- 
E:------------------------------------------------ 

G:-----8---------8-------10---------10--- 
D:--------------------------------------- 
A:-6-6---6-6-6-6---6-8-8----8-8-8-8----8- 
E:--------------------------------------- 

G:-------12-------------12---- 
D:---------------------------- 
A:-10-10----10-10-10-10----10- 
E:---------------------------- 

G:-------13-------------13---- 
D:---------------------------- 
A:-11-11----11-11-11-11----11- 
E:---------------------------- 

G:-------15-------------15----------15-------------15---- 
D:------------------------------------------------------- 
A:-13-13----13-13-13-13----13-13-13----13-13-13-13----13- 
E:------------------------------------------------------- 

Riff 3 
Part A 
(Between 2nd and 3rd verse)
I don't think I've heard either part of Riff 3 live but I'm sure it's on the album version. 
On "Show" simon plays Riff 1 here instead. 

G:------------------------------------- 
D:-----10---------8---------6---------- 
A:-------------------------------8-6-6- 
E:-8-8----8-8-6-6---6-6-4-4----6------- 

 
Riff 3 
Part B

G:-------------------------3---------4----- 
D:-----5---------6------------------------- 
A:---------------------1-1---1-1-2-2---2-2- 
E:-3-3---3-3-4-4---4-4--------------------- 

Riff 4 
(Last verse) 
(This is really just a rearrangement of riff 1)

G:-----5---------8---------10----3p0--- 
D:-----------------------------------1- 
A:-3-3---3-3-6-6---6-6-8-8-----1------- 
E:------------------------------------- 

G:---5----3p0-----5----3p0--- 
D:------------1------------1- 
A:-3----1-------3----1------- 
E:--------------------------- 

Riff 5 
(Last chorus)

G:------------------------------------- 
D:-----6---------6-------8---------8--- 
A:------------------------------------- 
E:-4-4---4-4-4-4---4-6-6---6-6-6-6---6- 

G:------------------------------------- 
D:-----6---------6-------5---------5--- 
A:------------------------------------- 
E:-4-4---4-4-4-4---4-3-3---3-3-3-3---3- 

G:-----10---------10--- 
D:--------------------- 
A:-8-8----8-8-8-8----8- 
E:--------------------- 

G:-------12-------------12---- 
D:---------------------------- 
A:-10-10----10-10-10-10----10- 
E:---------------------------- 

G:-------13-------------13---- 
D:---------------------------- 
A:-11-11----11-11-11-11----11- 
E:---------------------------- 

G:-------15-------------15---- 
D:---------------------------- 
A:-13-13----13-13-13-13----13- 


Important: The song above is NOT stored on the Chordie server. The original song is hosted at www.xguitar.com. Chordie works as a search engine and provides on-the-fly formatting. Chordie does not index songs against artists'/composers' will. To remove this song please click here.

This song is displayed as text-only. Transposing and tuning is only available for chordpro-songs.

Login - add to songbook

Rating click stars to rate

Layout
Accuracy

SHARE PAGE  




You need to log in to post comments