Guitar Tabs, Chords and Lyrics


Play For Today  Cure

E: --12--7------5---7---------------------12--7---


B: 12-----7----5-----7-----12-----------12-----7--


G:---------7--5-------7--12-----12----12--------7-


D:---------------------7----------12--------------


E: ---5--7---------------------


B: --5----7-----12-------------


G: -5------7--12----12----12---


D: ---------7---------12----12-


E:-------------------------------------------3


B:-------------------------------------------5


G:----6---6-------5----5-----------5---4-----4


D:------------6------------------------------5


A:--4---4---4---4----4---4-----3-3---3---3---3

It[Bm]'s not a c[A]ase of doing what's r[Bm]ight
It's just the w[A]ay I feel that ma[Bm]tters
Tell me I'm wr[A]ong, I don't really c[G]are
It's not a case of share and share alike
I take what I require
I don't understand... you say it's not fair
Yo[C#m]u expect me to a[D]ct like a lover
Co[C#m]nsider my moves and de[D]serve the reward
To[C#m] hold you i[D]n my arms
And w[C#m]ait... and wa[Cmaj7]it for something to happen[Bm] [A] [Bm] [A]
It's not a case of telling the truth
Some lines just fit the situation
You call me a liar, you would anyway
It's not a case of aiming to please
You know you're always crying
It's just your part in the play for today
[E]  [D]  [E]  [D]  [E]  [D]  [C#m]    [Cmaj7]      [Bm]   [A]  [Bm]   [A]  [G]  Solo: F# Cmaj7
OUTRO
[-----]      Tabbed by: David Larson
at about 2:55 into the song
repeat
e:----------------------------------------------------------------|
B:-3---3--3--3---3--3--3---3--3--3-----0--2--3----0--2--3---0--2--|
G:-4---4--4--4---4--4--4---4--4--4-----0--0--0----0--0--0---0--0--|
D:-4---4--4--4---4--4--4---4--4--4-----4--4--4----4--4--4---4--4--|
A:-2---2--2--2---2--2--2---2--2--2-----4--4--4----4--4--4---4--4--|
E:----------------------------------------------------------------|

F# (variations of F#) repeat
e:-(2)-----------2---------------2----2------2------------------------|
B:-(2)-----------2-----------2---2----2--2---2-----0---2---3----------|
G:-(3)----3--3---3---3-------3---3----3--3---3-----0---2---2----------|
D:-(4)----4--4-------4---4---4-----------4---------4---4---4----------|
A:-(4)----4--4-----------4-------------------------4---4---4----------|
E:-(2)-------------------2--------------------------------------------|

at the end rit.
e:----------------------|
B:------0----2----3-----|
G:------0----0----0-----|
D:------4----4----4-----|
A:------4----4----4-----|
E:----------------------|


Important: The song above is NOT stored on the Chordie server. The original song is hosted at www.xguitar.com. Chordie works as a search engine and provides on-the-fly formatting. Chordie does not index songs against artists'/composers' will. To remove this song please click here.

Text color:
Chord color:
Chord grids: 
Font size:    
Page size: 

A Bm C#m Cmaj7 D E G
variations - click chord images

Login - add to songbook

Transpose chords

Tuning

Rating click stars to rate

Layout
Accuracy

SHARE PAGE  




You need to log in to post comments