Guitar Tabs, Chords and Lyrics


The Walk   Cure



The Cure (Staring at the Sea - the Singles)

THE WALK - tabbed by ??? and David Larson 
here is the verse:
-2-2-0-0---------
---------2-2-2-2-
-0-0-------------
-----3-3-0-0-0-0-
A    G   E       really simple, huh?

here is the chorus...still playing all octaves...
2-2-5-5-7-7-7-7
--------0-0-0-0-
0-0-3-3---------
-----------------

and now the neat part...that crazy melody 
it's actually played on keyboard or guitar,
but it sounds neat, so here it is:

e 8-10-12-10-8h10-7-5--5-5-5-3h5-3-0-
B -----------------------------------
G -----------------------------------

   A        G      E
I called you after midnight
Then ran until I burst
I passed the howling woman
And stood outside your door

================

Tabbed by David Larson

this part is played when robert isn't singing, like at 45 seconds into the
song, right after "....trouble in their dreams again......"
e:------------------------------2-------------------------------------|
B:-------0------0------0-----0-----0-------------0------0-----0-------|
G:----2------2------2-----2-----------2-------2------2-----2----------|
D:-2---------------------------------------2--------------------------|
A:--------------------------------------------------------------------|


Important: The song above is NOT stored on the Chordie server. The original song is hosted at www.xguitar.com. Chordie works as a search engine and provides on-the-fly formatting. Chordie does not index songs against artists'/composers' will. To remove this song please click here.

This song is displayed as text-only. Transposing and tuning is only available for chordpro-songs.

Login - add to songbook

Rating click stars to rate

Layout
Accuracy

SHARE PAGE  




You need to log in to post comments