Guitar Tabs, Chords and Lyrics


Trust  Cure

                                 [-----]   Remember to use the capo on 2nd fret:
There's [Bm]no-one left in the w[D]orld that I can hol[G]d onto[D]
There is really no-one left at all, there is only you
And if you leave me now, you leave all that we were undone
There is really no-one left, you are the only one
And sti[F#m]ll the hardest p[G]art for you to put [D]your trust in me[Bm]
I love [F#m]you more than I [G]can say. Why won't [D]you just believe?[A]
TAB:
|---------------------|---------------------|------------------------|
|---------------------|---------------------|------------------1-----|
|--2---------------2--|----------3---2------|--2---3---2---3---------|
|------3---0---3------|--0---3---3-------3--|------0-----------------|
|----------0----------|----------1----------|------------------------|
|---------------------|---------(1)---------|------------------------| 

x2
|---------------------|        |-----------------------------------|
|---------------------|        |------1----------------------------|
|--3---2---3---2------|        |----------3---2---3---2------------|
|----------0-------3--|        |--3-----------------------3---3----|
|---------------------|        |------1---------------5------------|
|---------------------|        |-----------------------------------|
|-------------------------------------|-----------------------------|
|-------------------------------------|------1----------------------|
|------2-----------2-------3----------|----------3---2---3---2------|
|--3-------3-----------3---3---3------|--3------------------3---3---|
|--------------3-----------5-------5--|------1---------------5------|
|-------------------------------------|-----------------------------|
|-------------------------------------------------------------------|
|-------------------------------------------------------------------|
|------2-----------0------------------------------------------------|
|--3-------3--------------------------------------------------------|
|--------------3----------------------------------------------------|
|-------------------------------------------------------------------|


"Trust" : The Cure
From : Wish
Mauricio Paredes
maparede@isluga.puc.cl
Riff "A1" (Piano)
--------|---------------------|-------------------|
--0-----|---------0-----------|--1----------------|
-----0--|-----0------------0--|----0-----------0--|
--------|--2-----------2------|------------2------|
--------|---------------------|-------------------|
--------|--0------------------|--3----------------|
|---------------------|---------------------|
|--1-----1--3--1--0---|--1--0---------------|
|-----0---------------|--------0------------|
|---------------------|---------------------|
|--0------------------|---------------------|
|---------------------|--3------------------|

Riff "A2" (Guitar)
--------|------7--7-------7---|-----7--7-------7--|
--------|-----8--------8------|----8---------8----|
--------|--9---------9--------|--7---------7------|
--------|---------------------|-------------------|
--------|---------------------|-------------------|
--------|---------------------|-------------------|
|------5--5------5----|------3--------5-----|
|----5---------5------|----5---5----7---7---|
|--5---------5--------|--4--------7---------|
|---------------------|---------------------|
|---------------------|---------------------|
|---------------------|---------------------|

Riff "B1" (Piano)
|---------------------|---------------------|
|----0--1--0----------|--1--0---------------|
|--0------------------|--------0--0---------|
|---------------------|---------------------|
|----2----------------|-----3---------------|
|---------------------|---------------------|

1st time 2nd time
|---------------------|---------------------|    |---------------------|
|-----0---------------|--0------------------|    |--0------------------|
|--0-----0------------|----0--2--0----------|    |-----0--2------------|
|------------0--------|-------------2-------|    |---------------------|
|---------------------|---------------------|    |--------0------------|
|-----3---------------|-------0-------------|    |---------------------|

Riff "B2" (Guitar)
|------2--2------2----|------3--3------3----|
|----3---------3------|----3---------3------|
|--4---------4--------|--4---------4--------|
|---------------------|---------------------|
|---------------------|---------------------|
|---------------------|---------------------|

1st time 2nd time
|------7--7------7----|------7--7------7----|    |---5-----------------|
|----8---------8------|----8---------8------|    |---------------------|
|--7---------7--------|--9---------9--------|    |---------------------|
|---------------------|---------------------|    |---------------------|
|---------------------|---------------------|    |---------------------|
|---------------------|---------------------|    |---------------------|

Play : A1 (2 times)
A1 A2 (2 times)
B1 B2 (2 times)
The rest of the song is :
A1 A2 (4 times)
B1 B2 (2 times)
Enjoy.
Mauricio

Important: The song above is NOT stored on the Chordie server. The original song is hosted at www.xguitar.com. Chordie works as a search engine and provides on-the-fly formatting. Chordie does not index songs against artists'/composers' will. To remove this song please click here.

Text color:
Chord color:
Chord grids: 
Font size:    
Page size: 

A Bm D F#m G
variations - click chord images

Login - add to songbook

Transpose chords

Tuning

Rating click stars to rate

Layout
Accuracy

Jango Player

SHARE PAGE  




You need to log in to post comments